  0
SECTION
  2
HEADER
  9
$ACADVER
  1
AC1014
  9
$ACADMAINTVER
 70
     0
  9
$DWGCODEPAGE
  3
ANSI_932
  9
$INSBASE
 10
0.0
 20
0.0
 30
0.0
  9
$EXTMIN
 10
-195.892
 20
-137.763
 30
0.0
  9
$EXTMAX
 10
195.108
 20
134.237
 30
0.0
  9
$LIMMIN
 10
0.0
 20
0.0
  9
$LIMMAX
 10
0.0
 20
0.0
  9
$ORTHOMODE
 70
     0
  9
$REGENMODE
 70
     1
  9
$FILLMODE
 70
     1
  9
$QTEXTMODE
 70
     0
  9
$MIRRTEXT
 70
     1
  9
$DRAGMODE
 70
     2
  9
$LTSCALE
 40
1.0
  9
$OSMODE
 70
     0
  9
$ATTMODE
 70
     1
  9
$TEXTSIZE
 40
0.2
  9
$TRACEWID
 40
0.05
  9
$TEXTSTYLE
  7
STANDARD
  9
$CLAYER
  8
0
  9
$CELTYPE
  6
CONTINUOUS
  9
$CECOLOR
 62
   256
  9
$CELTSCALE
 40
1.0
  9
$DELOBJ
 70
     1
  9
$DISPSILH
 70
     0
  9
$DIMSCALE
 40
1.0
  9
$DIMASZ
 40
0.18
  9
$DIMEXO
 40
0.0625
  9
$DIMDLI
 40
0.38
  9
$DIMRND
 40
0.0
  9
$DIMDLE
 40
0.0
  9
$DIMEXE
 40
0.18
  9
$DIMTP
 40
0.0
  9
$DIMTM
 40
0.0
  9
$DIMTXT
 40
0.18
  9
$DIMCEN
 40
0.09
  9
$DIMTSZ
 40
0.0
  9
$DIMTOL
 70
     0
  9
$DIMLIM
 70
     0
  9
$DIMTIH
 70
     1
  9
$DIMTOH
 70
     1
  9
$DIMSE1
 70
     0
  9
$DIMSE2
 70
     0
  9
$DIMTAD
 70
     0
  9
$DIMZIN
 70
     0
  9
$DIMBLK
  1

  9
$DIMASO
 70
     1
  9
$DIMSHO
 70
     1
  9
$DIMPOST
  1

  9
$DIMAPOST
  1

  9
$DIMALT
 70
     0
  9
$DIMALTD
 70
     2
  9
$DIMALTF
 40
25.4
  9
$DIMLFAC
 40
1.0
  9
$DIMTOFL
 70
     0
  9
$DIMTVP
 40
0.0
  9
$DIMTIX
 70
     0
  9
$DIMSOXD
 70
     0
  9
$DIMSAH
 70
     0
  9
$DIMBLK1
  1

  9
$DIMBLK2
  1

  9
$DIMSTYLE
  2
STANDARD
  9
$DIMCLRD
 70
     0
  9
$DIMCLRE
 70
     0
  9
$DIMCLRT
 70
     0
  9
$DIMTFAC
 40
1.0
  9
$DIMGAP
 40
0.09
  9
$DIMJUST
 70
     0
  9
$DIMSD1
 70
     0
  9
$DIMSD2
 70
     0
  9
$DIMTOLJ
 70
     1
  9
$DIMTZIN
 70
     0
  9
$DIMALTZ
 70
     0
  9
$DIMALTTZ
 70
     0
  9
$DIMFIT
 70
     5
  9
$DIMUPT
 70
     0
  9
$DIMUNIT
 70
     2
  9
$DIMDEC
 70
     4
  9
$DIMTDEC
 70
     4
  9
$DIMALTU
 70
     2
  9
$DIMALTTD
 70
     2
  9
$DIMTXSTY
  7
STANDARD
  9
$DIMAUNIT
 70
     0
  9
$LUNITS
 70
     2
  9
$LUPREC
 70
     4
  9
$SKETCHINC
 40
0.1
  9
$FILLETRAD
 40
0.0
  9
$AUNITS
 70
     0
  9
$AUPREC
 70
     0
  9
$MENU
  1
acad
  9
$ELEVATION
 40
0.0
  9
$PELEVATION
 40
0.0
  9
$THICKNESS
 40
0.0
  9
$LIMCHECK
 70
     0
  9
$BLIPMODE
 70
     1
  9
$CHAMFERA
 40
0.0
  9
$CHAMFERB
 40
0.0
  9
$CHAMFERC
 40
0.0
  9
$CHAMFERD
 40
0.0
  9
$SKPOLY
 70
     0
  9
$TDCREATE
 40
2452132.469271527
  9
$TDUPDATE
 40
2452132.469271527
  9
$TDINDWG
 40
0.0000000000
  9
$TDUSRTIMER
 40
0.0000000000
  9
$USRTIMER
 70
     1
  9
$ANGBASE
 50
0.0
  9
$ANGDIR
 70
     0
  9
$PDMODE
 70
     0
  9
$PDSIZE
 40
0.0
  9
$PLINEWID
 40
0.0
  9
$COORDS
 70
     0
  9
$SPLFRAME
 70
     0
  9
$SPLINETYPE
 70
     6
  9
$SPLINESEGS
 70
     8
  9
$ATTDIA
 70
     0
  9
$ATTREQ
 70
     1
  9
$HANDLING
 70
     1
  9
$HANDSEED
  5
386
  9
$SURFTAB1
 70
     6
  9
$SURFTAB2
 70
     6
  9
$SURFTYPE
 70
     6
  9
$SURFU
 70
     6
  9
$SURFV
 70
     6
  9
$UCSNAME
  2

  9
$UCSORG
 10
0.0
 20
0.0
 30
0.0
  9
$UCSXDIR
 10
1.0
 20
0.0
 30
0.0
  9
$UCSYDIR
 10
0.0
 20
1.0
 30
0.0
  9
$PUCSNAME
  2

  9
$PUCSORG
 10
0.0
 20
0.0
 30
0.0
  9
$PUCSXDIR
 10
1.0
 20
0.0
 30
0.0
  9
$PUCSYDIR
 10
0.0
 20
1.0
 30
0.0
  9
$USERI1
 70
     0
  9
$USERI2
 70
     0
  9
$USERI3
 70
     0
  9
$USERI4
 70
     0
  9
$USERI5
 70
     0
  9
$USERR1
 40
0.0
  9
$USERR2
 40
0.0
  9
$USERR3
 40
0.0
  9
$USERR4
 40
0.0
  9
$USERR5
 40
0.0
  9
$WORLDVIEW
 70
     1
  9
$SHADEDGE
 70
     3
  9
$SHADEDIF
 70
    70
  9
$TILEMODE
 70
     1
  9
$MAXACTVP
 70
    16
  9
$PINSBASE
 10
0.0
 20
0.0
 30
0.0
  9
$PLIMCHECK
 70
     0
  9
$PEXTMIN
 10
1.000000E+20
 20
1.000000E+20
 30
1.000000E+20
  9
$PEXTMAX
 10
-1.000000E+20
 20
-1.000000E+20
 30
-1.000000E+20
  9
$PLIMMIN
 10
0.0
 20
0.0
  9
$PLIMMAX
 10
12.0
 20
9.0
  9
$UNITMODE
 70
     0
  9
$VISRETAIN
 70
     0
  9
$PLINEGEN
 70
     1
  9
$PSLTSCALE
 70
     0
  9
$TREEDEPTH
 70
  3020
  9
$PICKSTYLE
 70
     1
  9
$CMLSTYLE
  2
STANDARD
  9
$CMLJUST
 70
     0
  9
$CMLSCALE
 40
1.0
  9
$PROXYGRAPHICS
 70
     1
  9
$MEASUREMENT
 70
     0
  0
ENDSEC
  0
SECTION
  2
CLASSES
  0
CLASS
  1
DICTIONARYVAR
  2
AcDbDictionaryVar
  3
"AutoCAD"
 90
        0
280
     0
281
     0
  0
CLASS
  1
LWPOLYLINE
  2
AcDbPolyline
  3
"AutoCAD"
 90
        0
280
     0
281
     1
  0
ENDSEC
  0
SECTION
  2
TABLES
  0
TABLE
  2
VPORT
  5
34E
100
AcDbSymbolTable
 70
     1
  0
VPORT
  5
379
100
AcDbSymbolTableRecord
100
AcDbViewportTableRecord
  2
*ACTIVE
 70
     0
 10
0.0
 20
0.0
 11
1.0
 21
1.0
 12
-0.387236
 22
-1.765813
 13
0.0
 23
0.0
 14
1.0
 24
1.0
 15
0.0
 25
0.0
 16
0.0
 26
0.0
 36
1.0
 17
0.0
 27
0.0
 37
0.0
 40
275.084083
 41
1.740602
 42
50.0
 43
0.0
 44
0.0
 50
0.0
 51
0.0
 71
     0
 72
   100
 73
     1
 74
     1
 75
     0
 76
     0
 77
     0
 78
     0
  0
ENDTAB
  0
TABLE
  2
LTYPE
  5
34B
100
AcDbSymbolTable
 70
    11
  0
LTYPE
  5
357
100
AcDbSymbolTableRecord
100
AcDbLinetypeTableRecord
  2
BYBLOCK
 70
     0
  3

 72
    65
 73
     0
 40
0.0
  0
LTYPE
  5
358
100
AcDbSymbolTableRecord
100
AcDbLinetypeTableRecord
  2
BYLAYER
 70
     0
  3

 72
    65
 73
     0
 40
0.0
  0
LTYPE
  5
359
100
AcDbSymbolTableRecord
100
AcDbLinetypeTableRecord
  2
CONTINUOUS
 70
     0
  3
Solid line
 72
    65
 73
     0
 40
0.0
  0
LTYPE
  5
36F
100
AcDbSymbolTableRecord
100
AcDbLinetypeTableRecord
  2
VECTORWORKS_DASH_01
 70
     0
  3
(unavailable)
 72
    65
 73
     2
 40
2.116537
 49
1.058075
 74
     0
 49
-1.058463
 74
     0
  0
LTYPE
  5
370
100
AcDbSymbolTableRecord
100
AcDbLinetypeTableRecord
  2
VECTORWORKS_DASH_02
 70
     0
  3
(unavailable)
 72
    65
 73
     2
 40
3.527692
 49
2.469229
 74
     0
 49
-1.058463
 74
     0
  0
LTYPE
  5
371
100
AcDbSymbolTableRecord
100
AcDbLinetypeTableRecord
  2
VECTORWORKS_DASH_03
 70
     0
  3
(unavailable)
 72
    65
 73
     2
 40
6.35
 49
5.291537
 74
     0
 49
-1.058463
 74
     0
  0
LTYPE
  5
372
100
AcDbSymbolTableRecord
100
AcDbLinetypeTableRecord
  2
VECTORWORKS_DASH_04
 70
     0
  3
(unavailable)
 72
    65
 73
     4
 40
33.513846
 49
20.108463
 74
     0
 49
-4.938846
 74
     0
 49
3.175
 74
     0
 49
-5.291537
 74
     0
  0
LTYPE
  5
373
100
AcDbSymbolTableRecord
100
AcDbLinetypeTableRecord
  2
VECTORWORKS_DASH_05
 70
     0
  3
(unavailable)
 72
    65
 73
     2
 40
1.058075
 49
0.352692
 74
     0
 49
-0.705383
 74
     0
  0
LTYPE
  5
374
100
AcDbSymbolTableRecord
100
AcDbLinetypeTableRecord
  2
VECTORWORKS_DASH_06
 70
     0
  3
(unavailable)
 72
    65
 73
     4
 40
32.102692
 49
21.519617
 74
     0
 49
-4.233075
 74
     0
 49
2.469617
 74
     0
 49
-3.880383
 74
     0
  0
LTYPE
  5
375
100
AcDbSymbolTableRecord
100
AcDbLinetypeTableRecord
  2
VECTORWORKS_DASH_07
 70
     0
  3
(unavailable)
 72
    65
 73
     6
 40
9.525
 49
3.175
 74
     0
 49
-1.058075
 74
     0
 49
3.175
 74
     0
 49
-1.058463
 74
     0
 49
0.352692
 74
     0
 49
-0.705771
 74
     0
  0
LTYPE
  5
376
100
AcDbSymbolTableRecord
100
AcDbLinetypeTableRecord
  2
VECTORWORKS_DASH_08
 70
     0
  3
(unavailable)
 72
    65
 73
     6
 40
98.777692
 49
86.430383
 74
     0
 49
-2.469617
 74
     0
 49
2.469617
 74
     0
 49
-2.469229
 74
     0
 49
2.469617
 74
     0
 49
-2.469229
 74
     0
  0
LTYPE
  5
377
100
AcDbSymbolTableRecord
100
AcDbLinetypeTableRecord
  2
VECTORWORKS_DASH_09
 70
     0
  3
(unavailable)
 72
    65
 73
     4
 40
51.858463
 49
43.744617
 74
     0
 49
-2.116537
 74
     0
 49
3.175
 74
     0
 49
-2.822308
 74
     0
  0
LTYPE
  5
378
100
AcDbSymbolTableRecord
100
AcDbLinetypeTableRecord
  2
VECTORWORKS_DASH_10
 70
     0
  3
(unavailable)
 72
    65
 73
     6
 40
35.983463
 49
23.636154
 74
     0
 49
-2.469229
 74
     0
 49
2.469617
 74
     0
 49
-2.469617
 74
     0
 49
2.469229
 74
     0
 49
-2.469617
 74
     0
  0
ENDTAB
  0
TABLE
  2
LAYER
  5
348
100
AcDbSymbolTable
 70
     3
  0
LAYER
  5
354
100
AcDbSymbolTableRecord
100
AcDbLayerTableRecord
  2
0
 70
     0
 62
     7
  6
CONTINUOUS
  0
LAYER
  5
37B
100
AcDbSymbolTableRecord
100
AcDbLayerTableRecord
  2
____
 70
     0
 62
     7
  6
CONTINUOUS
  0
LAYER
  5
37C
100
AcDbSymbolTableRecord
100
AcDbLayerTableRecord
  2
____1
 70
     0
 62
     7
  6
CONTINUOUS
  0
ENDTAB
  0
TABLE
  2
STYLE
  5
349
100
AcDbSymbolTable
 70
     1
  0
STYLE
  5
355
100
AcDbSymbolTableRecord
100
AcDbTextStyleTableRecord
  2
STANDARD
 70
     0
 40
0.0
 41
1.0
 50
0.0
 71
     0
 42
0.0
  3
txt
  4
BIGFONT.SHX
  0
ENDTAB
  0
TABLE
  2
VIEW
  5
34C
100
AcDbSymbolTable
 70
     0
  0
ENDTAB
  0
TABLE
  2
UCS
  5
34D
100
AcDbSymbolTable
 70
     0
  0
ENDTAB
  0
TABLE
  2
APPID
  5
34F
100
AcDbSymbolTable
 70
     1
  0
APPID
  5
356
100
AcDbSymbolTableRecord
100
AcDbRegAppTableRecord
  2
ACAD
 70
     0
  0
ENDTAB
  0
TABLE
  2
DIMSTYLE
  5
350
100
AcDbSymbolTable
 70
     1
  0
DIMSTYLE
105
37A
100
AcDbSymbolTableRecord
100
AcDbDimStyleTableRecord
  2
STANDARD
 70
     0
  3

  4

  5

  6

  7

 40
1.0
 41
0.18
 42
0.0625
 43
0.38
 44
0.18
 45
0.0
 46
0.0
 47
0.0
 48
0.0
140
0.18
141
0.09
142
0.0
143
25.4
144
1.0
145
0.0
146
1.0
147
0.09
 71
     0
 72
     0
 73
     1
 74
     1
 75
     0
 76
     0
 77
     0
 78
     0
170
     0
171
     2
172
     0
173
     0
174
     0
175
     0
176
     0
177
     0
178
     0
270
     2
271
     4
272
     4
273
     2
274
     2
340
355
275
     0
280
     0
281
     0
282
     0
283
     1
284
     0
285
     0
286
     0
287
     5
288
     0
  0
ENDTAB
  0
TABLE
  2
BLOCK_RECORD
  5
347
100
AcDbSymbolTable
 70
    13
  0
BLOCK_RECORD
  5
35D
100
AcDbSymbolTableRecord
100
AcDbBlockTableRecord
  2
*MODEL_SPACE
  0
BLOCK_RECORD
  5
35A
100
AcDbSymbolTableRecord
100
AcDbBlockTableRecord
  2
*PAPER_SPACE
  0
BLOCK_RECORD
  5
362
100
AcDbSymbolTableRecord
100
AcDbBlockTableRecord
  2
*G0
  0
BLOCK_RECORD
  5
363
100
AcDbSymbolTableRecord
100
AcDbBlockTableRecord
  2
*G1
  0
BLOCK_RECORD
  5
364
100
AcDbSymbolTableRecord
100
AcDbBlockTableRecord
  2
*G2
  0
BLOCK_RECORD
  5
365
100
AcDbSymbolTableRecord
100
AcDbBlockTableRecord
  2
*G3
  0
BLOCK_RECORD
  5
366
100
AcDbSymbolTableRecord
100
AcDbBlockTableRecord
  2
*G4
  0
BLOCK_RECORD
  5
367
100
AcDbSymbolTableRecord
100
AcDbBlockTableRecord
  2
*G5
  0
BLOCK_RECORD
  5
368
100
AcDbSymbolTableRecord
100
AcDbBlockTableRecord
  2
*G6
  0
BLOCK_RECORD
  5
369
100
AcDbSymbolTableRecord
100
AcDbBlockTableRecord
  2
*G7
  0
BLOCK_RECORD
  5
36A
100
AcDbSymbolTableRecord
100
AcDbBlockTableRecord
  2
*G8
  0
BLOCK_RECORD
  5
36B
100
AcDbSymbolTableRecord
100
AcDbBlockTableRecord
  2
*G9
  0
BLOCK_RECORD
  5
36C
100
AcDbSymbolTableRecord
100
AcDbBlockTableRecord
  2
*G10
  0
BLOCK_RECORD
  5
36D
100
AcDbSymbolTableRecord
100
AcDbBlockTableRecord
  2
*G11
  0
BLOCK_RECORD
  5
36E
100
AcDbSymbolTableRecord
100
AcDbBlockTableRecord
  2
*G12
  0
ENDTAB
  0
ENDSEC
  0
SECTION
  2
BLOCKS
  0
BLOCK
  5
37F
100
AcDbEntity
  8
0
100
AcDbBlockBegin
  2
*MODEL_SPACE
 70
     0
 10
0.0
 20
0.0
 30
0.0
  3
*MODEL_SPACE
  1

  0
ENDBLK
  5
380
100
AcDbEntity
  8
0
100
AcDbBlockEnd
  0
BLOCK
  5
37D
100
AcDbEntity
 67
     1
  8
0
100
AcDbBlockBegin
  2
*PAPER_SPACE
 70
     0
 10
0.0
 20
0.0
 30
0.0
  3
*PAPER_SPACE
  1

  0
ENDBLK
  5
37E
100
AcDbEntity
 67
     1
  8
0
100
AcDbBlockEnd
  0
BLOCK
  5
36
100
AcDbEntity
  8
____1
100
AcDbBlockBegin
  2
*G0
 70
     1
 10
0.0
 20
0.0
 30
0.0
  3
*G0
  1

  0
TEXT
  5
37
100
AcDbEntity
  8
____1
 62
     7
100
AcDbText
 10
186.27533
 20
-27.29399
 30
0.0
 40
3.38666
  1
65
 50
90.0
 11
182.88867
 21
-27.29399
 31
0.0
100
AcDbText
 73
     3
  0
ENDBLK
  5
38
100
AcDbEntity
  8
____1
100
AcDbBlockEnd
  0
BLOCK
  5
39
100
AcDbEntity
  8
____1
100
AcDbBlockBegin
  2
*G1
 70
     1
 10
0.0
 20
0.0
 30
0.0
  3
*G1
  1

  0
TEXT
  5
3A
100
AcDbEntity
  8
____1
 62
     7
100
AcDbText
 10
158.70602
 20
21.22465
 30
0.0
 40
3.38666
  1
35
 50
0.000504
 11
158.70599
 21
24.61131
 31
0.0
100
AcDbText
 73
     3
  0
ENDBLK
  5
3B
100
AcDbEntity
  8
____1
100
AcDbBlockEnd
  0
BLOCK
  5
3C
100
AcDbEntity
  8
____1
100
AcDbBlockBegin
  2
*G2
 70
     1
 10
0.0
 20
0.0
 30
0.0
  3
*G2
  1

  0
TEXT
  5
3D
100
AcDbEntity
  8
____1
 62
     7
100
AcDbText
 10
64.55902
 20
21.22463
 30
0.0
 40
3.38666
  1
151
 50
0.000504
 11
64.55899
 21
24.61129
 31
0.0
100
AcDbText
 73
     3
  0
ENDBLK
  5
3E
100
AcDbEntity
  8
____1
100
AcDbBlockEnd
  0
BLOCK
  5
3F
100
AcDbEntity
  8
____1
100
AcDbBlockBegin
  2
*G3
 70
     1
 10
0.0
 20
0.0
 30
0.0
  3
*G3
  1

  0
TEXT
  5
40
100
AcDbEntity
  8
____1
 62
     7
100
AcDbText
 10
-54.72467
 20
-42.79399
 30
0.0
 40
3.38666
  1
31
 50
90.0
 11
-58.11133
 21
-42.79399
 31
0.0
100
AcDbText
 73
     3
  0
ENDBLK
  5
41
100
AcDbEntity
  8
____1
100
AcDbBlockEnd
  0
BLOCK
  5
42
100
AcDbEntity
  8
____1
100
AcDbBlockBegin
  2
*G4
 70
     1
 10
0.0
 20
0.0
 30
0.0
  3
*G4
  1

  0
TEXT
  5
43
100
AcDbEntity
  8
____1
 62
     7
100
AcDbText
 10
-108.79398
 20
-80.77535
 30
0.0
 40
3.38666
  1
80
 50
0.000504
 11
-108.79401
 21
-77.38869
 31
0.0
100
AcDbText
 73
     3
  0
ENDBLK
  5
44
100
AcDbEntity
  8
____1
100
AcDbBlockEnd
  0
BLOCK
  5
45
100
AcDbEntity
  8
____1
100
AcDbBlockBegin
  2
*G5
 70
     1
 10
0.0
 20
0.0
 30
0.0
  3
*G5
  1

  0
TEXT
  5
46
100
AcDbEntity
  8
____1
 62
     7
100
AcDbText
 10
-108.79398
 20
19.22465
 30
0.0
 40
3.38666
  1
50
 50
0.000504
 11
-108.79401
 21
22.61131
 31
0.0
100
AcDbText
 73
     3
  0
ENDBLK
  5
47
100
AcDbEntity
  8
____1
100
AcDbBlockEnd
  0
BLOCK
  5
48
100
AcDbEntity
  8
____1
100
AcDbBlockBegin
  2
*G6
 70
     1
 10
0.0
 20
0.0
 30
0.0
  3
*G6
  1

  0
TEXT
  5
49
100
AcDbEntity
  8
____1
 62
     7
100
AcDbText
 10
116.88337
 20
123.22465
 30
0.0
 40
3.38666
  1
※
 50
0.000504
 11
116.88334
 21
126.61131
 31
0.0
100
AcDbText
 73
     3
  0
ENDBLK
  5
4A
100
AcDbEntity
  8
____1
100
AcDbBlockEnd
  0
BLOCK
  5
4B
100
AcDbEntity
  8
____1
100
AcDbBlockBegin
  2
*G7
 70
     1
 10
0.0
 20
0.0
 30
0.0
  3
*G7
  1

  0
TEXT
  5
4C
100
AcDbEntity
  8
____1
 62
     7
100
AcDbText
 10
-54.005
 20
-63.07833
 30
0.0
 40
3.38666
  1
11
 50
90.0
 11
-57.39166
 21
-63.07833
 31
0.0
100
AcDbText
 73
     3
  0
ENDBLK
  5
4D
100
AcDbEntity
  8
____1
100
AcDbBlockEnd
  0
BLOCK
  5
4E
100
AcDbEntity
  8
____1
100
AcDbBlockBegin
  2
*G8
 70
     1
 10
0.0
 20
0.0
 30
0.0
  3
*G8
  1

  0
TEXT
  5
4F
100
AcDbEntity
  8
____1
 62
     7
100
AcDbText
 10
112.93834
 20
28.005
 30
0.0
 40
3.38666
  1
50以上
 11
112.93834
 21
31.39166
 31
0.0
100
AcDbText
 73
     3
  0
ENDBLK
  5
50
100
AcDbEntity
  8
____1
100
AcDbBlockEnd
  0
BLOCK
  5
51
100
AcDbEntity
  8
____1
100
AcDbBlockBegin
  2
*G9
 70
     1
 10
0.0
 20
0.0
 30
0.0
  3
*G9
  1

  0
TEXT
  5
52
100
AcDbEntity
  8
____1
 62
     7
100
AcDbText
 10
-44.005
 20
-74.32833
 30
0.0
 40
3.38666
  1
95
 50
90.0
 11
-47.39166
 21
-74.32833
 31
0.0
100
AcDbText
 73
     3
  0
ENDBLK
  5
53
100
AcDbEntity
  8
____1
100
AcDbBlockEnd
  0
BLOCK
  5
54
100
AcDbEntity
  8
____1
100
AcDbBlockBegin
  2
*G10
 70
     1
 10
0.0
 20
0.0
 30
0.0
  3
*G10
  1

  0
TEXT
  5
55
100
AcDbEntity
  8
____1
 62
     7
100
AcDbText
 10
-54.005
 20
-95.07833
 30
0.0
 40
3.38666
  1
54
 50
90.0
 11
-57.39166
 21
-95.07833
 31
0.0
100
AcDbText
 73
     3
  0
ENDBLK
  5
56
100
AcDbEntity
  8
____1
100
AcDbBlockEnd
  0
BLOCK
  5
57
100
AcDbEntity
  8
____1
100
AcDbBlockBegin
  2
*G11
 70
     1
 10
0.0
 20
0.0
 30
0.0
  3
*G11
  1

  0
TEXT
  5
58
100
AcDbEntity
  8
____1
 62
     7
100
AcDbText
 10
-39.765437
 20
79.726348
 30
0.0
 40
3.38666
  1
45%%d%%d
 50
68.997803
 11
-42.92711
 21
80.94014
 31
0.0
100
AcDbText
 73
     3
  0
ENDBLK
  5
59
100
AcDbEntity
  8
____1
100
AcDbBlockEnd
  0
BLOCK
  5
5A
100
AcDbEntity
  8
____1
100
AcDbBlockBegin
  2
*G12
 70
     1
 10
0.0
 20
0.0
 30
0.0
  3
*G12
  1

  0
TEXT
  5
5B
100
AcDbEntity
  8
____1
 62
     7
100
AcDbText
 10
-82.406405
 20
41.492086
 30
0.0
 40
3.38666
  1
45%%d%%d
 50
22.499191
 11
-83.70238
 21
44.62097
 31
0.0
100
AcDbText
 73
     3
  0
ENDBLK
  5
5C
100
AcDbEntity
  8
____1
100
AcDbBlockEnd
  0
ENDSEC
  0
SECTION
  2
ENTITIES
  0
TEXT
  5
5D
100
AcDbEntity
  8
____1
 62
     7
100
AcDbText
 10
-183.62283
 20
-6.31887
 30
0.0
 40
2.8344
  1
取付孔（2-φ6）
 11
-183.62283
 21
-3.48447
 31
0.0
100
AcDbText
 73
     3
  0
LWPOLYLINE
  5
5E
100
AcDbEntity
  8
____
  6
CONTINUOUS
 62
     7
100
AcDbPolyline
 90
        5
 70
   129
 43
0.0
 10
-195.892
 20
134.237
 10
195.108
 20
134.237
 10
195.108
 20
-137.763
 10
-195.892
 20
-137.763
 10
-195.892
 20
134.237
  0
LWPOLYLINE
  5
5F
100
AcDbEntity
  8
____
  6
CONTINUOUS
 62
     7
100
AcDbPolyline
 90
        5
 70
   129
 43
0.0
 10
-195.892
 20
-123.763
 10
195.108
 20
-123.763
 10
195.108
 20
-137.763
 10
-195.892
 20
-137.763
 10
-195.892
 20
-123.763
  0
LINE
  5
60
100
AcDbEntity
  8
____
  6
CONTINUOUS
 62
     7
100
AcDbLine
 10
62.084
 20
-137.763
 30
0.0
 11
195.084
 21
-137.763
 31
0.0
  0
LINE
  5
61
100
AcDbEntity
  8
____
  6
CONTINUOUS
 62
     7
100
AcDbLine
 10
115.084
 20
-137.763
 30
0.0
 11
115.084
 21
-123.763
 31
0.0
  0
LINE
  5
62
100
AcDbEntity
  8
____
  6
CONTINUOUS
 62
     7
100
AcDbLine
 10
95.084
 20
-137.763
 30
0.0
 11
95.084
 21
-123.763
 31
0.0
  0
LINE
  5
63
100
AcDbEntity
  8
____
  6
CONTINUOUS
 62
     7
100
AcDbLine
 10
50.084
 20
-137.763
 30
0.0
 11
50.084
 21
-123.763
 31
0.0
  0
LINE
  5
64
100
AcDbEntity
  8
____
  6
CONTINUOUS
 62
     7
100
AcDbLine
 10
-54.916
 20
-137.763
 30
0.0
 11
-54.916
 21
-123.763
 31
0.0
  0
LINE
  5
65
100
AcDbEntity
  8
____
  6
CONTINUOUS
 62
     7
100
AcDbLine
 10
-94.916
 20
-128.657
 30
0.0
 11
-54.916
 21
-128.657
 31
0.0
  0
LINE
  5
66
100
AcDbEntity
  8
____
  6
CONTINUOUS
 62
     7
100
AcDbLine
 10
-94.916
 20
-133.096
 30
0.0
 11
-54.916
 21
-133.096
 31
0.0
  0
TEXT
  5
67
100
AcDbEntity
  8
____
 62
     7
100
AcDbText
 10
-54.416
 20
-126.816
 30
0.0
 40
2.54
  1
品　名
 11
-54.416
 21
-124.276
 31
0.0
100
AcDbText
 73
     3
  0
TEXT
  5
68
100
AcDbEntity
  8
____
 62
     7
100
AcDbText
 10
51.084
 20
-127.316
 30
0.0
 40
2.54
  1
形　式
 11
51.084
 21
-124.776
 31
0.0
100
AcDbText
 73
     3
  0
TEXT
  5
69
100
AcDbEntity
  8
____
 62
     7
100
AcDbText
 10
95.584
 20
-127.316
 30
0.0
 40
2.54
  1
尺　度
 11
95.584
 21
-124.776
 31
0.0
100
AcDbText
 73
     3
  0
TEXT
  5
6A
100
AcDbEntity
  8
____
 62
     7
100
AcDbText
 10
116.584
 20
-127.316
 30
0.0
 40
2.54
  1
図　番
 11
116.584
 21
-124.776
 31
0.0
100
AcDbText
 73
     3
  0
LINE
  5
6B
100
AcDbEntity
  8
____
  6
CONTINUOUS
 62
     7
100
AcDbLine
 10
-94.916
 20
-137.763
 30
0.0
 11
-94.916
 21
-123.763
 31
0.0
  0
TEXT
  5
6C
100
AcDbEntity
  8
____
 62
     7
100
AcDbText
 10
-93.916
 20
-127.316
 30
0.0
 40
2.54
  1
検  図
 11
-93.916
 21
-124.776
 31
0.0
100
AcDbText
 73
     3
  0
TEXT
  5
6D
100
AcDbEntity
  8
____
 62
     7
100
AcDbText
 10
-93.916
 20
-131.472
 30
0.0
 40
2.54
  1
担  当
 11
-93.916
 21
-128.932
 31
0.0
100
AcDbText
 73
     3
  0
TEXT
  5
6E
100
AcDbEntity
  8
____
 62
     7
100
AcDbText
 10
-93.916
 20
-136.059
 30
0.0
 40
2.54
  1
年月日
 11
-93.916
 21
-133.519
 31
0.0
100
AcDbText
 73
     3
  0
TEXT
  5
6F
100
AcDbEntity
  8
____
 62
     7
100
AcDbText
 10
101.052
 20
-134.089
 30
0.0
 40
5.08
  1
1/1
 11
101.052
 21
-129.009
 31
0.0
100
AcDbText
 73
     3
  0
TEXT
  5
70
100
AcDbEntity
  8
____
 62
     7
100
AcDbText
 10
-31.363
 20
-132.352
 30
0.0
 40
5.08
  1
自動ラック停止装置
 11
-31.363
 21
-127.272
 31
0.0
100
AcDbText
 73
     3
  0
TEXT
  5
71
100
AcDbEntity
  8
____
 62
     7
100
AcDbText
 10
63.44326
 20
-132.79557
 30
0.0
 40
5.08
  1
ARS-L
 11
63.44326
 21
-127.71557
 31
0.0
100
AcDbText
 73
     3
  0
LINE
  5
72
100
AcDbEntity
  8
____
  6
CONTINUOUS
 62
     7
100
AcDbLine
 10
-101.0
 20
-73.5
 30
0.0
 11
-101.0
 21
-72.5
 31
0.0
  0
LINE
  5
73
100
AcDbEntity
  8
____
  6
CONTINUOUS
 62
     7
100
AcDbLine
 10
-111.0
 20
-73.5
 30
0.0
 11
-101.0
 21
-73.5
 31
0.0
  0
LINE
  5
74
100
AcDbEntity
  8
____
  6
CONTINUOUS
 62
     7
100
AcDbLine
 10
-111.0
 20
-58.5
 30
0.0
 11
-111.0
 21
-59.5
 31
0.0
  0
LINE
  5
75
100
AcDbEntity
  8
____
  6
CONTINUOUS
 62
     7
100
AcDbLine
 10
-99.5
 20
-59.5
 30
0.0
 11
-99.5
 21
-58.5
 31
0.0
  0
LINE
  5
76
100
AcDbEntity
  8
____
  6
CONTINUOUS
 62
     7
100
AcDbLine
 10
-109.0
 20
-58.5
 30
0.0
 11
-111.0
 21
-58.5
 31
0.0
  0
LWPOLYLINE
  5
77
100
AcDbEntity
  8
____
  6
CONTINUOUS
 62
     7
100
AcDbPolyline
 90
        4
 70
     0
 43
0.0
 10
56.0
 20
114.5
 10
129.0
 20
114.5
 10
129.0
 20
41.5
 10
56.0
 20
41.5
  0
LWPOLYLINE
  5
7D
100
AcDbEntity
  8
____
  6
VECTORWORKS_DASH_08
 62
     7
100
AcDbPolyline
 90
        3
 70
     0
 43
0.0
 10
114.0
 20
-119.5
 10
114.0
 20
-19.5
 10
-24.0
 20
-19.5
  0
LWPOLYLINE
  5
82
100
AcDbEntity
  8
____
  6
CONTINUOUS
 62
     7
100
AcDbPolyline
 90
        5
 70
   129
 43
0.0
 10
147.0
 20
-51.5
 10
155.0
 20
-51.5
 10
155.0
 20
-55.5
 10
147.0
 20
-55.5
 10
147.0
 20
-51.5
  0
LWPOLYLINE
  5
83
100
AcDbEntity
  8
____
  6
CONTINUOUS
 62
     7
100
AcDbPolyline
 90
        4
 70
     1
 43
0.0
 10
179.0
 20
6.5
 10
179.0
 20
-55.5
 10
177.5
 20
-55.5
 10
177.5
 20
6.5
  0
LWPOLYLINE
  5
89
100
AcDbEntity
  8
____
  6
CONTINUOUS
 62
     7
100
AcDbPolyline
 90
        6
 70
     1
 43
0.0
 10
177.5
 20
6.5
 10
177.5
 20
-13.5
 10
176.0
 20
-13.5
 10
176.0
 20
5.0
 10
157.5
 20
5.0
 10
157.5
 20
6.5
  0
LWPOLYLINE
  5
91
100
AcDbEntity
  8
____
  6
CONTINUOUS
 62
     7
100
AcDbPolyline
 90
        8
 70
     1
 43
0.0
 10
162.0
 20
-21.5
 10
172.0
 20
-21.5
 10
172.0
 20
-31.5
 10
169.5
 20
-31.5
 10
169.5
 20
-73.5
 10
164.5
 20
-73.5
 10
164.5
 20
-31.5
 10
162.0
 20
-31.5
  0
LINE
  5
9B
100
AcDbEntity
  8
____
  6
CONTINUOUS
 62
     7
100
AcDbLine
 10
168.5
 20
-73.5
 30
0.0
 11
168.5
 21
-61.0
 31
0.0
  0
LINE
  5
9C
100
AcDbEntity
  8
____
  6
CONTINUOUS
 62
     7
100
AcDbLine
 10
165.5
 20
-73.5
 30
0.0
 11
165.5
 21
-61.0
 31
0.0
  0
LINE
  5
9D
100
AcDbEntity
  8
____
  6
CONTINUOUS
 62
     7
100
AcDbLine
 10
167.0
 20
13.0
 30
0.0
 11
167.0
 21
0.0
 31
0.0
  0
LINE
  5
9E
100
AcDbEntity
  8
____
  6
CONTINUOUS
 62
     7
100
AcDbLine
 10
174.0
 20
-24.5
 30
0.0
 11
184.0
 21
-24.5
 31
0.0
  0
LINE
  5
9F
100
AcDbEntity
  8
____
  6
VECTORWORKS_DASH_09
 62
     7
100
AcDbLine
 10
167.0
 20
-18.0
 30
0.0
 11
167.0
 21
-78.0
 31
0.0
  0
LWPOLYLINE
  5
A0
100
AcDbEntity
  8
____
  6
CONTINUOUS
 62
     7
100
AcDbPolyline
 90
        5
 70
   129
 43
0.0
 10
120.5
 20
-59.5
 10
138.5
 20
-59.5
 10
138.5
 20
-72.5
 10
120.5
 20
-72.5
 10
120.5
 20
-59.5
  0
LWPOLYLINE
  5
A1
100
AcDbEntity
  8
____
  6
CONTINUOUS
 62
     7
100
AcDbPolyline
 90
        7
 70
   129
 43
0.0
 10
120.5
 20
-58.0
 10
-3.5
 20
-58.0
 42
0.414214
 10
-6.5
 20
-61.0
 10
-6.5
 20
-71.0
 42
0.414214
 10
-3.5
 20
-74.0
 10
120.5
 20
-74.0
 10
120.5
 20
-58.0
  0
LWPOLYLINE
  5
A2
100
AcDbEntity
  8
____
  6
VECTORWORKS_DASH_08
 62
     7
100
AcDbPolyline
 90
        5
 70
     0
 43
0.0
 10
179.0
 20
-39.5
 10
179.0
 20
-94.5
 10
119.0
 20
-94.5
 10
119.0
 20
-119.5
 10
-19.0
 20
-119.5
  0
LWPOLYLINE
  5
A9
100
AcDbEntity
  8
____
  6
CONTINUOUS
 62
     7
100
AcDbPolyline
 90
        5
 70
   129
 43
0.0
 10
-115.0
 20
-24.5
 42
-0.414214
 10
-106.0
 20
-15.5
 42
-0.414214
 10
-97.0
 20
-24.5
 42
-0.414214
 10
-106.0
 20
-33.5
 42
-0.414214
 10
-115.0
 20
-24.5
 42
-0.414214
  0
LWPOLYLINE
  5
AA
100
AcDbEntity
  8
____
  6
CONTINUOUS
 62
     7
100
AcDbPolyline
 90
        5
 70
   129
 43
0.0
 10
-134.0
 20
-24.5
 42
-0.414214
 10
-131.0
 20
-21.5
 42
-0.414214
 10
-128.0
 20
-24.5
 42
-0.414214
 10
-131.0
 20
-27.5
 42
-0.414214
 10
-134.0
 20
-24.5
 42
-0.414214
  0
LWPOLYLINE
  5
AB
100
AcDbEntity
  8
____
  6
CONTINUOUS
 62
     7
100
AcDbPolyline
 90
        5
 70
   129
 43
0.0
 10
-84.0
 20
-24.5
 42
-0.414214
 10
-81.0
 20
-21.5
 42
-0.414214
 10
-78.0
 20
-24.5
 42
-0.414214
 10
-81.0
 20
-27.5
 42
-0.414214
 10
-84.0
 20
-24.5
 42
-0.414214
  0
LWPOLYLINE
  5
AC
100
AcDbEntity
  8
____
  6
CONTINUOUS
 62
     7
100
AcDbPolyline
 90
       19
 70
   129
 43
0.0
 10
146.0
 20
-57.0
 10
146.0
 20
-35.5
 10
140.775103
 20
-36.299991
 10
136.500158
 20
-36.999986
 10
133.175166
 20
-37.599985
 10
130.80013
 20
-38.09999
 10
127.09984
 20
-38.97635
 10
127.00047
 20
-39.00169
 10
126.90202
 20
-39.03041
 10
113.0923
 20
-43.31617
 10
112.02913
 20
-43.9036
 10
102.36914
 20
-52.18359
 10
101.97962
 20
-52.46659
 10
101.54983
 20
-52.68362
 10
98.83334
 20
-53.79167
 10
96.000006
 20
-55.000001
 10
93.83334
 20
-56.04166
 10
93.57529
 20
-56.61311
 10
94.0687
 20
-57.0
210
0.0
220
0.0
230
-1.0
  0
LWPOLYLINE
  5
AD
100
AcDbEntity
  8
____
  6
CONTINUOUS
 62
     7
100
AcDbPolyline
 90
        5
 70
   129
 43
0.0
 10
-114.0
 20
-66.0
 42
-0.414214
 10
-106.0
 20
-58.0
 42
-0.414214
 10
-98.0
 20
-66.0
 42
-0.414214
 10
-106.0
 20
-74.0
 42
-0.414214
 10
-114.0
 20
-66.0
 42
-0.414214
  0
LINE
  5
AE
100
AcDbEntity
  8
____
  6
VECTORWORKS_DASH_09
 62
     7
100
AcDbLine
 10
-106.0
 20
-79.167
 30
0.0
 11
-106.0
 21
11.5
 31
0.0
  0
LINE
  5
AF
100
AcDbEntity
  8
____
  6
VECTORWORKS_DASH_09
 62
     7
100
AcDbLine
 10
-62.0
 20
-24.5
 30
0.0
 11
-139.0
 21
-24.5
 31
0.0
  0
LINE
  5
B0
100
AcDbEntity
  8
____
  6
VECTORWORKS_DASH_09
 62
     7
100
AcDbLine
 10
-120.0
 20
-66.0
 30
0.0
 11
-90.0
 21
-66.0
 31
0.0
  0
LINE
  5
B1
100
AcDbEntity
  8
____
  6
CONTINUOUS
 62
     7
100
AcDbLine
 10
-114.0
 20
-79.5
 30
0.0
 11
-114.0
 21
-52.5
 31
0.0
  0
LINE
  5
B2
100
AcDbEntity
  8
____
  6
VECTORWORKS_DASH_08
 62
     7
100
AcDbLine
 10
-166.0
 20
-119.5
 30
0.0
 11
-62.0
 21
-119.5
 31
0.0
  0
LINE
  5
B3
100
AcDbEntity
  8
____
  6
VECTORWORKS_DASH_08
 62
     7
100
AcDbLine
 10
-62.0
 20
-94.5
 30
0.0
 11
-166.0
 21
-94.5
 31
0.0
  0
LINE
  5
B4
100
AcDbEntity
  8
____
  6
CONTINUOUS
 62
     7
100
AcDbLine
 10
-81.0
 20
-18.5
 30
0.0
 11
-81.0
 21
-29.5
 31
0.0
  0
LINE
  5
B5
100
AcDbEntity
  8
____
  6
CONTINUOUS
 62
     7
100
AcDbLine
 10
-131.0
 20
-18.5
 30
0.0
 11
-131.0
 21
-29.5
 31
0.0
  0
LWPOLYLINE
  5
B6
100
AcDbEntity
  8
____
  6
CONTINUOUS
 62
     7
100
AcDbPolyline
 90
        4
 70
     0
 43
0.0
 10
56.0
 20
104.5
 10
129.0
 20
104.5
 10
129.0
 20
41.5
 10
56.0
 20
41.5
  0
LWPOLYLINE
  5
BC
100
AcDbEntity
  8
____
  6
CONTINUOUS
 62
     7
100
AcDbPolyline
 90
        6
 70
   128
 43
0.0
 10
56.0
 20
98.5
 10
118.0
 20
98.5
 42
-0.414214
 10
123.0
 20
93.5
 10
123.0
 20
52.5
 42
-0.414214
 10
118.0
 20
47.5
 10
56.0
 20
47.5
  0
LWPOLYLINE
  5
BD
100
AcDbEntity
  8
____
  6
VECTORWORKS_DASH_10
 62
     7
100
AcDbPolyline
 90
        9
 70
   129
 43
0.0
 10
116.0
 20
91.0
 42
0.414214
 10
109.0
 20
98.0
 10
73.0
 20
98.0
 42
0.414214
 10
66.0
 20
91.0
 10
66.0
 20
55.0
 42
0.414214
 10
73.0
 20
48.0
 10
109.0
 20
48.0
 42
0.414214
 10
116.0
 20
55.0
 10
116.0
 20
91.0
  0
LWPOLYLINE
  5
BE
100
AcDbEntity
  8
____
  6
CONTINUOUS
 62
     7
100
AcDbPolyline
 90
        5
 70
   129
 43
0.0
 10
106.0
 20
104.5
 10
114.0
 20
104.5
 10
114.0
 20
101.0
 10
106.0
 20
101.0
 10
106.0
 20
104.5
  0
TEXT
  5
BF
100
AcDbEntity
  8
____
 62
     7
100
AcDbText
 10
35.694
 20
120.905
 30
0.0
 40
2.804
  1
※印寸法は停止位置確認のうえ取付のこと。
 11
35.694
 21
123.709
 31
0.0
100
AcDbText
 73
     3
  0
TEXT
  5
C0
100
AcDbEntity
  8
____1
 62
     7
100
AcDbText
 10
-180.4005
 20
17.68113
 30
0.0
 40
2.8344
  1
配線取り出し孔
 11
-180.4005
 21
20.51553
 31
0.0
100
AcDbText
 73
     3
  0
LINE
  5
C1
100
AcDbEntity
  8
____1
  6
CONTINUOUS
 62
     7
100
AcDbLine
 10
-155.0
 20
14.5
 30
0.0
 11
-180.0
 21
14.5
 31
0.0
  0
LINE
  5
C3
100
AcDbEntity
  8
____1
 62
     7
100
AcDbLine
 10
-112.0
 20
-17.5
 30
0.0
 11
-115.04765
 21
-16.26867
 31
0.0
  0
LINE
  5
C4
100
AcDbEntity
  8
____1
 62
     7
100
AcDbLine
 10
-112.0
 20
-17.5
 30
0.0
 11
-114.02368
 21
-14.90981
 31
0.0
  0
LINE
  5
C2
100
AcDbEntity
  8
____1
  6
CONTINUOUS
 62
     7
100
AcDbLine
 10
-155.0
 20
14.5
 30
0.0
 11
-112.0
 21
-17.5
 31
0.0
  0
LINE
  5
C5
100
AcDbEntity
  8
____1
  6
CONTINUOUS
 62
     7
100
AcDbLine
 10
-183.0
 20
-8.5
 30
0.0
 11
-156.674
 21
-8.5
 31
0.0
  0
LINE
  5
C7
100
AcDbEntity
  8
____1
 62
     7
100
AcDbLine
 10
-133.0
 20
-22.5
 30
0.0
 11
-136.15967
 21
-21.59398
 31
0.0
  0
LINE
  5
C8
100
AcDbEntity
  8
____1
 62
     7
100
AcDbLine
 10
-133.0
 20
-22.5
 30
0.0
 11
-135.28334
 21
-20.13553
 31
0.0
  0
LINE
  5
C6
100
AcDbEntity
  8
____1
  6
CONTINUOUS
 62
     7
100
AcDbLine
 10
-156.674
 20
-8.5
 30
0.0
 11
-133.0
 21
-22.5
 31
0.0
  0
TEXT
  5
C9
100
AcDbEntity
  8
____1
 62
     7
100
AcDbText
 10
-166.42
 20
-105.7988
 30
0.0
 40
2.7328
  1
ラックスライド面
 11
-166.42
 21
-103.066
 31
0.0
100
AcDbText
 73
     3
  0
TEXT
  5
CA
100
AcDbEntity
  8
____1
 62
     7
100
AcDbText
 10
-167.152
 20
-89.9398
 30
0.0
 40
2.7328
  1
ラックスライド方向
 11
-167.152
 21
-87.207
 31
0.0
100
AcDbText
 73
     3
  0
LWPOLYLINE
  5
CB
100
AcDbEntity
  8
____1
  6
CONTINUOUS
 62
     7
100
AcDbPolyline
 90
        4
 70
     0
 43
0.0
 10
-167.152
 20
-90.72244
 10
-114.0
 20
-90.72244
 10
-124.08055
 20
-89.5
 10
-124.08055
 20
-91.477
  0
LINE
  5
D1
100
AcDbEntity
  8
____1
  6
CONTINUOUS
 62
     7
100
AcDbLine
 10
-169.0
 20
-107.5
 30
0.0
 11
-139.092
 21
-107.5
 31
0.0
  0
LINE
  5
D3
100
AcDbEntity
  8
____1
 62
     7
100
AcDbLine
 10
-135.0
 20
-119.5
 30
0.0
 11
-136.79023
 21
-116.74329
 31
0.0
  0
LINE
  5
D4
100
AcDbEntity
  8
____1
 62
     7
100
AcDbLine
 10
-135.0
 20
-119.5
 30
0.0
 11
-135.17203
 21
-116.2175
 31
0.0
  0
LINE
  5
D2
100
AcDbEntity
  8
____1
  6
CONTINUOUS
 62
     7
100
AcDbLine
 10
-139.092
 20
-107.5
 30
0.0
 11
-135.0
 21
-119.5
 31
0.0
  0
LWPOLYLINE
  5
D5
100
AcDbEntity
  8
____
  6
CONTINUOUS
 62
     7
100
AcDbPolyline
 90
        3
 70
     1
 43
0.0
 10
172.0
 20
-55.5
 10
172.0
 20
-54.5
 10
173.0
 20
-55.5
  0
LWPOLYLINE
  5
DA
100
AcDbEntity
  8
____
  6
CONTINUOUS
 62
     7
100
AcDbPolyline
 90
        3
 70
     1
 43
0.0
 10
162.0
 20
-55.5
 10
162.0
 20
-54.5
 10
161.0
 20
-55.5
  0
LWPOLYLINE
  5
DF
100
AcDbEntity
  8
____
  6
CONTINUOUS
 62
     7
100
AcDbPolyline
 90
        5
 70
   128
 43
0.0
 10
144.0
 20
-61.0
 10
145.0
 20
-63.0
 42
-0.236068
 10
145.0
 20
-67.0
 42
0.322823
 10
145.58114
 20
-70.58114
 10
146.0
 20
-71.0
  0
LWPOLYLINE
  5
E0
100
AcDbEntity
  8
____
  6
CONTINUOUS
 62
     7
100
AcDbPolyline
 90
        6
 70
     0
 43
0.0
 10
164.5
 20
-57.0
 10
163.0
 20
-57.0
 10
163.0
 20
-55.5
 10
162.0
 20
-55.5
 10
162.0
 20
-32.5
 10
164.5
 20
-32.5
  0
LWPOLYLINE
  5
E8
100
AcDbEntity
  8
____
  6
CONTINUOUS
 62
     7
100
AcDbPolyline
 90
        6
 70
     0
 43
0.0
 10
169.5
 20
-57.0
 10
171.0
 20
-57.0
 10
171.0
 20
-55.5
 10
172.0
 20
-55.5
 10
172.0
 20
-32.5
 10
169.5
 20
-32.5
  0
LWPOLYLINE
  5
F0
100
AcDbEntity
  8
____
  6
CONTINUOUS
 62
     7
100
AcDbPolyline
 90
       20
 70
   128
 43
0.0
 10
163.0
 20
-55.5
 10
147.0
 20
-55.5
 10
147.0
 20
-55.5
 10
147.0
 20
-55.5
 42
-0.414214
 10
145.5
 20
-54.0
 10
145.5
 20
5.0
 10
145.5
 20
5.0
 10
145.5
 20
5.0
 42
-0.414214
 10
147.0
 20
6.5
 10
179.0
 20
6.5
 10
179.0
 20
8.0
 10
147.0
 20
8.0
 10
147.0
 20
8.0
 10
147.0
 20
8.0
 42
0.414214
 10
144.0
 20
5.0
 10
144.0
 20
-54.0
 10
144.0
 20
-54.0
 10
144.0
 20
-54.0
 42
0.414214
 10
147.0
 20
-57.0
 10
164.5
 20
-57.0
  0
LWPOLYLINE
  5
F1
100
AcDbEntity
  8
____
  6
CONTINUOUS
 62
     7
100
AcDbPolyline
 90
        4
 70
     0
 43
0.0
 10
171.0
 20
-55.5
 10
179.0
 20
-55.5
 10
179.0
 20
-57.0
 10
169.5
 20
-57.0
  0
LWPOLYLINE
  5
F7
100
AcDbEntity
  8
____
  6
CONTINUOUS
 62
     7
100
AcDbPolyline
 90
        4
 70
     0
 43
0.0
 10
173.5
 20
-58.0
 10
173.5
 20
-58.0
 10
173.5
 20
-57.0
 10
169.5
 20
-57.0
  0
LWPOLYLINE
  5
FD
100
AcDbEntity
  8
____
  6
CONTINUOUS
 62
     7
100
AcDbPolyline
 90
        4
 70
     0
 43
0.0
 10
164.5
 20
-58.0
 10
160.5
 20
-58.0
 10
160.5
 20
-57.0
 10
164.5
 20
-57.0
  0
LWPOLYLINE
  5
103
100
AcDbEntity
  8
____
  6
CONTINUOUS
 62
     7
100
AcDbPolyline
 90
        4
 70
     0
 43
0.0
 10
169.5
 20
-61.0
 10
173.5
 20
-61.0
 10
173.5
 20
-60.0
 10
169.5
 20
-60.0
  0
LWPOLYLINE
  5
109
100
AcDbEntity
  8
____
  6
CONTINUOUS
 62
     7
100
AcDbPolyline
 90
        4
 70
     0
 43
0.0
 10
164.5
 20
-61.0
 10
160.5
 20
-61.0
 10
160.5
 20
-60.0
 10
160.5
 20
-60.0
  0
LINE
  5
10F
100
AcDbEntity
  8
____
  6
CONTINUOUS
 62
     7
100
AcDbLine
 10
164.0
 20
-61.0
 30
0.0
 11
164.5
 21
-61.0
 31
0.0
  0
LWPOLYLINE
  5
110
100
AcDbEntity
  8
____
  6
CONTINUOUS
 62
     7
100
AcDbPolyline
 90
        4
 70
     0
 43
0.0
 10
164.5
 20
-58.0
 10
160.5
 20
-58.0
 10
160.5
 20
-59.0
 10
164.5
 20
-59.0
  0
LWPOLYLINE
  5
116
100
AcDbEntity
  8
____
  6
CONTINUOUS
 62
     7
100
AcDbPolyline
 90
        4
 70
     0
 43
0.0
 10
169.5
 20
-58.0
 10
173.5
 20
-58.0
 10
173.5
 20
-59.0
 10
173.5
 20
-59.0
  0
LWPOLYLINE
  5
11C
100
AcDbEntity
  8
____
  6
CONTINUOUS
 62
     7
100
AcDbPolyline
 90
        4
 70
     0
 43
0.0
 10
169.5
 20
-60.0
 10
173.5
 20
-60.0
 10
173.5
 20
-59.0
 10
169.5
 20
-59.0
  0
LWPOLYLINE
  5
122
100
AcDbEntity
  8
____
  6
CONTINUOUS
 62
     7
100
AcDbPolyline
 90
        4
 70
     0
 43
0.0
 10
164.5
 20
-60.0
 10
160.5
 20
-60.0
 10
160.5
 20
-59.0
 10
164.5
 20
-59.0
  0
LINE
  5
128
100
AcDbEntity
  8
____
  6
CONTINUOUS
 62
     7
100
AcDbLine
 10
164.5
 20
-63.0
 30
0.0
 11
145.0
 21
-63.0
 31
0.0
  0
LINE
  5
129
100
AcDbEntity
  8
____
  6
VECTORWORKS_DASH_09
 62
     7
100
AcDbLine
 10
169.5
 20
-66.0
 30
0.0
 11
187.0
 21
-66.0
 31
0.0
  0
LINE
  5
12A
100
AcDbEntity
  8
____
  6
VECTORWORKS_DASH_09
 62
     7
100
AcDbLine
 10
-16.0
 20
-66.0
 30
0.0
 11
164.5
 21
-66.0
 31
0.0
  0
LINE
  5
12B
100
AcDbEntity
  8
____
  6
CONTINUOUS
 62
     7
100
AcDbLine
 10
164.5
 20
-69.0
 30
0.0
 11
145.0
 21
-69.0
 31
0.0
  0
LWPOLYLINE
  5
12C
100
AcDbEntity
  8
____
  6
CONTINUOUS
 62
     7
100
AcDbPolyline
 90
        4
 70
     0
 43
0.0
 10
169.5
 20
-69.0
 10
173.5
 20
-69.0
 10
173.5
 20
-63.0
 10
169.5
 20
-63.0
  0
LWPOLYLINE
  5
132
100
AcDbEntity
  8
____
  6
CONTINUOUS
 62
     7
100
AcDbPolyline
 90
        6
 70
     0
 43
0.0
 10
164.5
 20
-71.0
 10
162.0
 20
-71.0
 10
162.0
 20
-73.5
 10
172.0
 20
-73.5
 10
172.0
 20
-71.0
 10
169.5
 20
-71.0
  0
LWPOLYLINE
  5
13A
100
AcDbEntity
  8
____
  6
CONTINUOUS
 62
     7
100
AcDbPolyline
 90
       14
 70
   128
 43
0.0
 10
153.0
 20
-71.0
 10
153.0
 20
-74.0
 10
153.0
 20
-74.0
 10
153.0
 20
-74.0
 10
153.0
 20
-74.0
 10
153.0
 20
-74.0
 42
0.414214
 10
154.0
 20
-75.0
 10
158.0
 20
-75.0
 10
158.0
 20
-75.0
 10
158.0
 20
-75.0
 10
158.0
 20
-75.0
 10
158.0
 20
-75.0
 42
0.414214
 10
159.0
 20
-74.0
 10
159.0
 20
-71.0
  0
LWPOLYLINE
  5
13B
100
AcDbEntity
  8
____
  6
CONTINUOUS
 62
     7
100
AcDbPolyline
 90
        4
 70
     0
 43
0.0
 10
153.0
 20
-61.0
 10
153.0
 20
-57.0
 10
159.0
 20
-57.0
 10
159.0
 20
-61.0
  0
LINE
  5
141
100
AcDbEntity
  8
____
  6
CONTINUOUS
 62
     7
100
AcDbLine
 10
138.5
 20
-71.0
 30
0.0
 11
164.5
 21
-71.0
 31
0.0
  0
LWPOLYLINE
  5
142
100
AcDbEntity
  8
____
  6
CONTINUOUS
 62
     7
100
AcDbPolyline
 90
        4
 70
     0
 43
0.0
 10
138.5
 20
-61.0
 10
173.5
 20
-61.0
 10
173.5
 20
-71.0
 10
172.0
 20
-71.0
  0
LINE
  5
148
100
AcDbEntity
  8
____
  6
CONTINUOUS
 62
     7
100
AcDbLine
 10
-99.5
 20
-57.5
 30
0.0
 11
-111.0
 21
-57.5
 31
0.0
  0
LINE
  5
149
100
AcDbEntity
  8
____
  6
CONTINUOUS
 62
     7
100
AcDbLine
 10
-99.5
 20
-58.5
 30
0.0
 11
-99.5
 21
-57.5
 31
0.0
  0
LINE
  5
14A
100
AcDbEntity
  8
____
  6
CONTINUOUS
 62
     7
100
AcDbLine
 10
-101.0
 20
-59.5
 30
0.0
 11
-99.5
 21
-59.5
 31
0.0
  0
LINE
  5
14B
100
AcDbEntity
  8
____
  6
CONTINUOUS
 62
     7
100
AcDbLine
 10
-111.0
 20
-58.5
 30
0.0
 11
-111.0
 21
-57.0
 31
0.0
  0
LINE
  5
14C
100
AcDbEntity
  8
____
  6
CONTINUOUS
 62
     7
100
AcDbLine
 10
-111.01918
 20
-74.1949
 30
0.0
 11
-111.0
 21
-74.0
 31
0.0
  0
LINE
  5
14D
100
AcDbEntity
  8
____
  6
CONTINUOUS
 62
     7
100
AcDbLine
 10
-111.07605
 20
-74.38252
 30
0.0
 11
-111.01918
 21
-74.1949
 31
0.0
  0
LINE
  5
14E
100
AcDbEntity
  8
____
  6
CONTINUOUS
 62
     7
100
AcDbLine
 10
-111.16845
 20
-74.55544
 30
0.0
 11
-111.07605
 21
-74.38252
 31
0.0
  0
LINE
  5
14F
100
AcDbEntity
  8
____
  6
CONTINUOUS
 62
     7
100
AcDbLine
 10
-111.29281
 20
-74.70702
 30
0.0
 11
-111.16845
 21
-74.55544
 31
0.0
  0
LINE
  5
150
100
AcDbEntity
  8
____
  6
CONTINUOUS
 62
     7
100
AcDbLine
 10
-111.44435
 20
-74.83142
 30
0.0
 11
-111.29281
 21
-74.70702
 31
0.0
  0
LINE
  5
151
100
AcDbEntity
  8
____
  6
CONTINUOUS
 62
     7
100
AcDbLine
 10
-111.61726
 20
-74.92386
 30
0.0
 11
-111.44435
 21
-74.83142
 31
0.0
  0
LINE
  5
152
100
AcDbEntity
  8
____
  6
CONTINUOUS
 62
     7
100
AcDbLine
 10
-111.80488
 20
-74.98078
 30
0.0
 11
-111.61726
 21
-74.92386
 31
0.0
  0
LINE
  5
153
100
AcDbEntity
  8
____
  6
CONTINUOUS
 62
     7
100
AcDbLine
 10
-112.0
 20
-75.0
 30
0.0
 11
-111.80488
 21
-74.98078
 31
0.0
  0
LINE
  5
154
100
AcDbEntity
  8
____
  6
CONTINUOUS
 62
     7
100
AcDbLine
 10
-116.0
 20
-75.0
 30
0.0
 11
-112.0
 21
-75.0
 31
0.0
  0
LINE
  5
155
100
AcDbEntity
  8
____
  6
CONTINUOUS
 62
     7
100
AcDbLine
 10
-116.19512
 20
-74.98078
 30
0.0
 11
-116.0
 21
-75.0
 31
0.0
  0
LINE
  5
156
100
AcDbEntity
  8
____
  6
CONTINUOUS
 62
     7
100
AcDbLine
 10
-116.38274
 20
-74.92386
 30
0.0
 11
-116.19512
 21
-74.98078
 31
0.0
  0
LINE
  5
157
100
AcDbEntity
  8
____
  6
CONTINUOUS
 62
     7
100
AcDbLine
 10
-116.55565
 20
-74.83142
 30
0.0
 11
-116.38274
 21
-74.92386
 31
0.0
  0
LINE
  5
158
100
AcDbEntity
  8
____
  6
CONTINUOUS
 62
     7
100
AcDbLine
 10
-116.70719
 20
-74.70702
 30
0.0
 11
-116.55565
 21
-74.83142
 31
0.0
  0
LINE
  5
159
100
AcDbEntity
  8
____
  6
CONTINUOUS
 62
     7
100
AcDbLine
 10
-116.83155
 20
-74.55544
 30
0.0
 11
-116.70719
 21
-74.70702
 31
0.0
  0
LINE
  5
15A
100
AcDbEntity
  8
____
  6
CONTINUOUS
 62
     7
100
AcDbLine
 10
-116.92395
 20
-74.38252
 30
0.0
 11
-116.83155
 21
-74.55544
 31
0.0
  0
LINE
  5
15B
100
AcDbEntity
  8
____
  6
CONTINUOUS
 62
     7
100
AcDbLine
 10
-116.98083
 20
-74.19488
 30
0.0
 11
-116.92395
 21
-74.38252
 31
0.0
  0
LINE
  5
15C
100
AcDbEntity
  8
____
  6
CONTINUOUS
 62
     7
100
AcDbLine
 10
-117.0
 20
-74.0
 30
0.0
 11
-116.98083
 21
-74.19488
 31
0.0
  0
LINE
  5
15D
100
AcDbEntity
  8
____
  6
CONTINUOUS
 62
     7
100
AcDbLine
 10
-117.0
 20
-57.0
 30
0.0
 11
-117.0
 21
-74.0
 31
0.0
  0
LINE
  5
15E
100
AcDbEntity
  8
____
  6
CONTINUOUS
 62
     7
100
AcDbLine
 10
-111.0
 20
-57.0
 30
0.0
 11
-117.0
 21
-57.0
 31
0.0
  0
LINE
  5
15F
100
AcDbEntity
  8
____
  6
CONTINUOUS
 62
     7
100
AcDbLine
 10
-99.5
 20
-58.5
 30
0.0
 11
-103.0
 21
-58.5
 31
0.0
  0
LWPOLYLINE
  5
160
100
AcDbEntity
  8
____
  6
CONTINUOUS
 62
     7
100
AcDbPolyline
 90
        3
 70
     0
 43
0.0
 10
-99.5
 20
-57.0
 10
-99.5
 20
-57.5
 10
-111.0
 20
-57.5
  0
LWPOLYLINE
  5
165
100
AcDbEntity
  8
____
  6
CONTINUOUS
 62
     7
100
AcDbPolyline
 90
        5
 70
     0
 43
0.0
 10
-94.92031
 20
-55.5
 10
-67.5
 20
-55.5
 10
-67.5
 20
6.5
 10
-144.5
 20
6.5
 10
-144.5
 20
-35.72524
  0
LWPOLYLINE
  5
16C
100
AcDbEntity
  8
____
  6
CONTINUOUS
 62
     7
100
AcDbPolyline
 90
        6
 70
     0
 43
0.0
 10
-94.92032
 20
-55.5
 10
-66.0
 20
-55.5
 10
-66.0
 20
6.5
 10
-146.0
 20
6.5
 10
-146.0
 20
-55.5
 10
-146.0
 20
-55.5
  0
LINE
  5
174
100
AcDbEntity
  8
____
  6
CONTINUOUS
 62
     7
100
AcDbLine
 10
-111.0
 20
-74.0
 30
0.0
 11
-111.0
 21
-72.25
 31
0.0
  0
LWPOLYLINE
  5
175
100
AcDbEntity
  8
____
  6
CONTINUOUS
 62
     7
100
AcDbPolyline
 90
        5
 70
     0
 43
0.0
 10
109.032
 20
101.0
 10
108.934
 20
100.902
 10
115.652
 20
94.184
 10
117.066
 20
95.598
 10
111.664
 20
101.0
  0
LINE
  5
17C
100
AcDbEntity
  8
____1
  6
CONTINUOUS
 62
     7
100
AcDbLine
 10
180.0
 20
8.0
 30
0.0
 11
191.0
 21
8.0
 31
0.0
  0
LINE
  5
17D
100
AcDbEntity
  8
____1
  6
CONTINUOUS
 62
     7
100
AcDbLine
 10
180.0
 20
-57.0
 30
0.0
 11
191.0
 21
-57.0
 31
0.0
  0
LINE
  5
17F
100
AcDbEntity
  8
____1
 62
     7
100
AcDbLine
 10
189.0
 20
8.0
 30
0.0
 11
189.58945
 21
5.80013
 31
0.0
  0
LINE
  5
180
100
AcDbEntity
  8
____1
 62
     7
100
AcDbLine
 10
189.0
 20
8.0
 30
0.0
 11
188.41055
 21
5.80013
 31
0.0
  0
LINE
  5
181
100
AcDbEntity
  8
____1
 62
     7
100
AcDbLine
 10
189.0
 20
-57.0
 30
0.0
 11
188.41055
 21
-54.80013
 31
0.0
  0
LINE
  5
182
100
AcDbEntity
  8
____1
 62
     7
100
AcDbLine
 10
189.0
 20
-57.0
 30
0.0
 11
189.58945
 21
-54.80013
 31
0.0
  0
LINE
  5
17E
100
AcDbEntity
  8
____1
  6
CONTINUOUS
 62
     7
100
AcDbLine
 10
189.0
 20
8.0
 30
0.0
 11
189.0
 21
-57.0
 31
0.0
  0
INSERT
  5
183
100
AcDbEntity
  8
____1
100
AcDbBlockReference
  2
*G0
 10
0.0
 20
0.0
 30
0.0
  0
LINE
  5
184
100
AcDbEntity
  8
____1
  6
CONTINUOUS
 62
     7
100
AcDbLine
 10
179.0
 20
9.0
 30
0.0
 11
179.0
 21
20.5
 31
0.0
  0
LINE
  5
185
100
AcDbEntity
  8
____1
  6
CONTINUOUS
 62
     7
100
AcDbLine
 10
144.0
 20
9.0
 30
0.0
 11
144.0
 21
20.5
 31
0.0
  0
LINE
  5
187
100
AcDbEntity
  8
____1
 62
     7
100
AcDbLine
 10
179.0
 20
18.5
 30
0.0
 11
176.80013
 21
17.91055
 31
0.0
  0
LINE
  5
188
100
AcDbEntity
  8
____1
 62
     7
100
AcDbLine
 10
179.0
 20
18.5
 30
0.0
 11
176.80013
 21
19.08945
 31
0.0
  0
LINE
  5
189
100
AcDbEntity
  8
____1
 62
     7
100
AcDbLine
 10
144.0
 20
18.5
 30
0.0
 11
146.19987
 21
19.08945
 31
0.0
  0
LINE
  5
18A
100
AcDbEntity
  8
____1
 62
     7
100
AcDbLine
 10
144.0
 20
18.5
 30
0.0
 11
146.19987
 21
17.91055
 31
0.0
  0
LINE
  5
186
100
AcDbEntity
  8
____1
  6
CONTINUOUS
 62
     7
100
AcDbLine
 10
179.0
 20
18.5
 30
0.0
 11
144.0
 21
18.5
 31
0.0
  0
INSERT
  5
18B
100
AcDbEntity
  8
____1
100
AcDbBlockReference
  2
*G1
 10
0.0
 20
0.0
 30
0.0
  0
LINE
  5
18C
100
AcDbEntity
  8
____1
  6
CONTINUOUS
 62
     7
100
AcDbLine
 10
144.0
 20
10.0
 30
0.0
 11
144.0
 21
20.5
 31
0.0
  0
LINE
  5
18D
100
AcDbEntity
  8
____1
  6
CONTINUOUS
 62
     7
100
AcDbLine
 10
-6.5
 20
-57.0
 30
0.0
 11
-6.5
 21
20.5
 31
0.0
  0
LINE
  5
18F
100
AcDbEntity
  8
____1
 62
     7
100
AcDbLine
 10
144.0
 20
18.5
 30
0.0
 11
141.80013
 21
17.91055
 31
0.0
  0
LINE
  5
190
100
AcDbEntity
  8
____1
 62
     7
100
AcDbLine
 10
144.0
 20
18.5
 30
0.0
 11
141.80013
 21
19.08945
 31
0.0
  0
LINE
  5
191
100
AcDbEntity
  8
____1
 62
     7
100
AcDbLine
 10
-6.5
 20
18.5
 30
0.0
 11
-4.30013
 21
19.08945
 31
0.0
  0
LINE
  5
192
100
AcDbEntity
  8
____1
 62
     7
100
AcDbLine
 10
-6.5
 20
18.5
 30
0.0
 11
-4.30013
 21
17.91055
 31
0.0
  0
LINE
  5
18E
100
AcDbEntity
  8
____1
  6
CONTINUOUS
 62
     7
100
AcDbLine
 10
144.0
 20
18.5
 30
0.0
 11
-6.5
 21
18.5
 31
0.0
  0
INSERT
  5
193
100
AcDbEntity
  8
____1
100
AcDbBlockReference
  2
*G2
 10
0.0
 20
0.0
 30
0.0
  0
LINE
  5
194
100
AcDbEntity
  8
____1
  6
CONTINUOUS
 62
     7
100
AcDbLine
 10
-65.0
 20
-24.5
 30
0.0
 11
-50.0
 21
-24.5
 31
0.0
  0
LINE
  5
195
100
AcDbEntity
  8
____1
  6
CONTINUOUS
 62
     7
100
AcDbLine
 10
-65.0
 20
-55.5
 30
0.0
 11
-50.0
 21
-55.5
 31
0.0
  0
LINE
  5
197
100
AcDbEntity
  8
____1
 62
     7
100
AcDbLine
 10
-52.0
 20
-24.5
 30
0.0
 11
-51.41055
 21
-26.69987
 31
0.0
  0
LINE
  5
198
100
AcDbEntity
  8
____1
 62
     7
100
AcDbLine
 10
-52.0
 20
-24.5
 30
0.0
 11
-52.58945
 21
-26.69987
 31
0.0
  0
LINE
  5
199
100
AcDbEntity
  8
____1
 62
     7
100
AcDbLine
 10
-52.0
 20
-55.5
 30
0.0
 11
-52.58945
 21
-53.30013
 31
0.0
  0
LINE
  5
19A
100
AcDbEntity
  8
____1
 62
     7
100
AcDbLine
 10
-52.0
 20
-55.5
 30
0.0
 11
-51.41055
 21
-53.30013
 31
0.0
  0
LINE
  5
196
100
AcDbEntity
  8
____1
  6
CONTINUOUS
 62
     7
100
AcDbLine
 10
-52.0
 20
-24.5
 30
0.0
 11
-52.0
 21
-55.5
 31
0.0
  0
INSERT
  5
19B
100
AcDbEntity
  8
____1
100
AcDbBlockReference
  2
*G3
 10
0.0
 20
0.0
 30
0.0
  0
LINE
  5
19C
100
AcDbEntity
  8
____1
  6
CONTINUOUS
 62
     7
100
AcDbLine
 10
-66.0
 20
-56.5
 30
0.0
 11
-66.0
 21
-85.5
 31
0.0
  0
LINE
  5
19D
100
AcDbEntity
  8
____1
  6
CONTINUOUS
 62
     7
100
AcDbLine
 10
-146.0
 20
-58.0
 30
0.0
 11
-146.0
 21
-85.5
 31
0.0
  0
LINE
  5
19F
100
AcDbEntity
  8
____1
 62
     7
100
AcDbLine
 10
-66.0
 20
-83.5
 30
0.0
 11
-68.19987
 21
-84.08945
 31
0.0
  0
LINE
  5
1A0
100
AcDbEntity
  8
____1
 62
     7
100
AcDbLine
 10
-66.0
 20
-83.5
 30
0.0
 11
-68.19987
 21
-82.91055
 31
0.0
  0
LINE
  5
1A1
100
AcDbEntity
  8
____1
 62
     7
100
AcDbLine
 10
-146.0
 20
-83.5
 30
0.0
 11
-143.80013
 21
-82.91055
 31
0.0
  0
LINE
  5
1A2
100
AcDbEntity
  8
____1
 62
     7
100
AcDbLine
 10
-146.0
 20
-83.5
 30
0.0
 11
-143.80013
 21
-84.08945
 31
0.0
  0
LINE
  5
19E
100
AcDbEntity
  8
____1
  6
CONTINUOUS
 62
     7
100
AcDbLine
 10
-66.0
 20
-83.5
 30
0.0
 11
-146.0
 21
-83.5
 31
0.0
  0
INSERT
  5
1A3
100
AcDbEntity
  8
____1
100
AcDbBlockReference
  2
*G4
 10
0.0
 20
0.0
 30
0.0
  0
LINE
  5
1A4
100
AcDbEntity
  8
____1
  6
CONTINUOUS
 62
     7
100
AcDbLine
 10
-81.0
 20
-23.5
 30
0.0
 11
-81.0
 21
18.5
 31
0.0
  0
LINE
  5
1A5
100
AcDbEntity
  8
____1
  6
CONTINUOUS
 62
     7
100
AcDbLine
 10
-131.0
 20
-23.5
 30
0.0
 11
-131.0
 21
18.5
 31
0.0
  0
LINE
  5
1A7
100
AcDbEntity
  8
____1
 62
     7
100
AcDbLine
 10
-81.0
 20
16.5
 30
0.0
 11
-83.19987
 21
15.91055
 31
0.0
  0
LINE
  5
1A8
100
AcDbEntity
  8
____1
 62
     7
100
AcDbLine
 10
-81.0
 20
16.5
 30
0.0
 11
-83.19987
 21
17.08945
 31
0.0
  0
LINE
  5
1A9
100
AcDbEntity
  8
____1
 62
     7
100
AcDbLine
 10
-131.0
 20
16.5
 30
0.0
 11
-128.80013
 21
17.08945
 31
0.0
  0
LINE
  5
1AA
100
AcDbEntity
  8
____1
 62
     7
100
AcDbLine
 10
-131.0
 20
16.5
 30
0.0
 11
-128.80013
 21
15.91055
 31
0.0
  0
LINE
  5
1A6
100
AcDbEntity
  8
____1
  6
CONTINUOUS
 62
     7
100
AcDbLine
 10
-81.0
 20
16.5
 30
0.0
 11
-131.0
 21
16.5
 31
0.0
  0
INSERT
  5
1AB
100
AcDbEntity
  8
____1
100
AcDbBlockReference
  2
*G5
 10
0.0
 20
0.0
 30
0.0
  0
LINE
  5
1AC
100
AcDbEntity
  8
____1
  6
CONTINUOUS
 62
     7
100
AcDbLine
 10
123.0
 20
95.5
 30
0.0
 11
123.0
 21
122.5
 31
0.0
  0
LINE
  5
1AD
100
AcDbEntity
  8
____1
  6
CONTINUOUS
 62
     7
100
AcDbLine
 10
114.0
 20
105.5
 30
0.0
 11
114.0
 21
122.5
 31
0.0
  0
LINE
  5
1AE
100
AcDbEntity
  8
____1
  6
CONTINUOUS
 62
     7
100
AcDbLine
 10
114.0
 20
120.5
 30
0.0
 11
123.0
 21
120.5
 31
0.0
  0
LINE
  5
1B0
100
AcDbEntity
  8
____1
 62
     7
100
AcDbLine
 10
123.0
 20
120.5
 30
0.0
 11
125.19987
 21
121.08945
 31
0.0
  0
LINE
  5
1B1
100
AcDbEntity
  8
____1
 62
     7
100
AcDbLine
 10
123.0
 20
120.5
 30
0.0
 11
125.19987
 21
119.91055
 31
0.0
  0
LINE
  5
1AF
100
AcDbEntity
  8
____1
  6
CONTINUOUS
 62
     7
100
AcDbLine
 10
123.0
 20
120.5
 30
0.0
 11
130.0
 21
120.5
 31
0.0
  0
LINE
  5
1B3
100
AcDbEntity
  8
____1
 62
     7
100
AcDbLine
 10
114.0
 20
120.5
 30
0.0
 11
111.80013
 21
119.91055
 31
0.0
  0
LINE
  5
1B4
100
AcDbEntity
  8
____1
 62
     7
100
AcDbLine
 10
114.0
 20
120.5
 30
0.0
 11
111.80013
 21
121.08945
 31
0.0
  0
LINE
  5
1B2
100
AcDbEntity
  8
____1
  6
CONTINUOUS
 62
     7
100
AcDbLine
 10
114.0
 20
120.5
 30
0.0
 11
107.0
 21
120.5
 31
0.0
  0
INSERT
  5
1B5
100
AcDbEntity
  8
____1
100
AcDbBlockReference
  2
*G6
 10
0.0
 20
0.0
 30
0.0
  0
LINE
  5
1B6
100
AcDbEntity
  8
____
  6
CONTINUOUS
 62
     7
100
AcDbLine
 10
45.0
 20
-3.0
 30
0.0
 11
59.0
 21
-3.0
 31
0.0
  0
LINE
  5
1B8
100
AcDbEntity
  8
____
 62
     7
100
AcDbLine
 10
70.0
 20
-19.5
 30
0.0
 11
67.55728
 21
-17.30057
 31
0.0
  0
LINE
  5
1B9
100
AcDbEntity
  8
____
 62
     7
100
AcDbLine
 10
70.0
 20
-19.5
 30
0.0
 11
68.98426
 21
-16.37388
 31
0.0
  0
LINE
  5
1B7
100
AcDbEntity
  8
____
  6
CONTINUOUS
 62
     7
100
AcDbLine
 10
59.0
 20
-3.0
 30
0.0
 11
70.0
 21
-19.5
 31
0.0
  0
TEXT
  5
1BA
100
AcDbEntity
  8
____
 62
     7
100
AcDbText
 10
46.0
 20
-0.38666
 30
0.0
 40
3.38666
  1
ラック
 11
46.0
 21
3.0
 31
0.0
100
AcDbText
 73
     3
  0
LINE
  5
1BB
100
AcDbEntity
  8
____1
  6
CONTINUOUS
 62
     7
100
AcDbLine
 10
-89.0
 20
-66.0
 30
0.0
 11
-50.0
 21
-66.0
 31
0.0
  0
LINE
  5
1BC
100
AcDbEntity
  8
____1
  6
CONTINUOUS
 62
     7
100
AcDbLine
 10
-80.21015
 20
-55.5
 30
0.0
 11
-50.0
 21
-55.5
 31
0.0
  0
LINE
  5
1BE
100
AcDbEntity
  8
____1
 62
     7
100
AcDbLine
 10
-52.0
 20
-66.0
 30
0.0
 11
-52.58945
 21
-63.80013
 31
0.0
  0
LINE
  5
1BF
100
AcDbEntity
  8
____1
 62
     7
100
AcDbLine
 10
-52.0
 20
-66.0
 30
0.0
 11
-51.41055
 21
-63.80013
 31
0.0
  0
LINE
  5
1C0
100
AcDbEntity
  8
____1
 62
     7
100
AcDbLine
 10
-52.0
 20
-55.5
 30
0.0
 11
-51.41055
 21
-57.69987
 31
0.0
  0
LINE
  5
1C1
100
AcDbEntity
  8
____1
 62
     7
100
AcDbLine
 10
-52.0
 20
-55.5
 30
0.0
 11
-52.58945
 21
-57.69987
 31
0.0
  0
LINE
  5
1BD
100
AcDbEntity
  8
____1
  6
CONTINUOUS
 62
     7
100
AcDbLine
 10
-52.0
 20
-66.0
 30
0.0
 11
-52.0
 21
-55.5
 31
0.0
  0
INSERT
  5
1C2
100
AcDbEntity
  8
____1
100
AcDbBlockReference
  2
*G7
 10
0.0
 20
0.0
 30
0.0
  0
LINE
  5
1C3
100
AcDbEntity
  8
____1
  6
CONTINUOUS
 62
     7
100
AcDbLine
 10
116.0
 20
72.0
 30
0.0
 11
116.0
 21
24.0
 31
0.0
  0
LINE
  5
1C4
100
AcDbEntity
  8
____1
  6
CONTINUOUS
 62
     7
100
AcDbLine
 10
123.0
 20
71.68172
 30
0.0
 11
123.0
 21
24.0
 31
0.0
  0
LINE
  5
1C5
100
AcDbEntity
  8
____1
  6
CONTINUOUS
 62
     7
100
AcDbLine
 10
123.0
 20
26.0
 30
0.0
 11
116.0
 21
26.0
 31
0.0
  0
LINE
  5
1C7
100
AcDbEntity
  8
____1
 62
     7
100
AcDbLine
 10
116.0
 20
26.0
 30
0.0
 11
113.80013
 21
25.41055
 31
0.0
  0
LINE
  5
1C8
100
AcDbEntity
  8
____1
 62
     7
100
AcDbLine
 10
116.0
 20
26.0
 30
0.0
 11
113.80013
 21
26.58945
 31
0.0
  0
LINE
  5
1C6
100
AcDbEntity
  8
____1
  6
CONTINUOUS
 62
     7
100
AcDbLine
 10
116.0
 20
26.0
 30
0.0
 11
109.0
 21
26.0
 31
0.0
  0
LINE
  5
1CA
100
AcDbEntity
  8
____1
 62
     7
100
AcDbLine
 10
123.0
 20
26.0
 30
0.0
 11
125.19987
 21
26.58945
 31
0.0
  0
LINE
  5
1CB
100
AcDbEntity
  8
____1
 62
     7
100
AcDbLine
 10
123.0
 20
26.0
 30
0.0
 11
125.19987
 21
25.41055
 31
0.0
  0
LINE
  5
1C9
100
AcDbEntity
  8
____1
  6
CONTINUOUS
 62
     7
100
AcDbLine
 10
123.0
 20
26.0
 30
0.0
 11
130.0
 21
26.0
 31
0.0
  0
INSERT
  5
1CC
100
AcDbEntity
  8
____1
100
AcDbBlockReference
  2
*G8
 10
0.0
 20
0.0
 30
0.0
  0
TEXT
  5
1CD
100
AcDbEntity
  8
____
 62
     7
100
AcDbText
 10
138.0
 20
86.46
 30
0.0
 40
2.54
  1
ラック停止位置
 11
138.0
 21
89.0
 31
0.0
100
AcDbText
 73
     3
  0
LINE
  5
1CE
100
AcDbEntity
  8
____
  6
CONTINUOUS
 62
     7
100
AcDbLine
 10
160.225
 20
85.03125
 30
0.0
 11
138.0
 21
85.03125
 31
0.0
  0
LINE
  5
1D0
100
AcDbEntity
  8
____
 62
     7
100
AcDbLine
 10
116.0
 20
68.0
 30
0.0
 11
118.02368
 21
70.59019
 31
0.0
  0
LINE
  5
1D1
100
AcDbEntity
  8
____
 62
     7
100
AcDbLine
 10
116.0
 20
68.0
 30
0.0
 11
119.04765
 21
69.23133
 31
0.0
  0
LINE
  5
1CF
100
AcDbEntity
  8
____
  6
CONTINUOUS
 62
     7
100
AcDbLine
 10
138.0
 20
85.03125
 30
0.0
 11
116.0
 21
68.0
 31
0.0
  0
TEXT
  5
1D2
100
AcDbEntity
  8
____
 62
     7
100
AcDbText
 10
-78.0
 20
-131.55563
 30
0.0
 40
2.54
  1
Otani
 11
-78.0
 21
-129.01563
 31
0.0
100
AcDbText
 73
     3
  0
LINE
  5
1D3
100
AcDbEntity
  8
____1
  6
CONTINUOUS
 62
     7
100
AcDbLine
 10
-61.0
 20
-24.5
 30
0.0
 11
-40.0
 21
-24.5
 31
0.0
  0
LINE
  5
1D4
100
AcDbEntity
  8
____1
  6
CONTINUOUS
 62
     7
100
AcDbLine
 10
-61.0
 20
-119.5
 30
0.0
 11
-40.0
 21
-119.5
 31
0.0
  0
LINE
  5
1D6
100
AcDbEntity
  8
____1
 62
     7
100
AcDbLine
 10
-42.0
 20
-24.5
 30
0.0
 11
-41.41055
 21
-26.69987
 31
0.0
  0
LINE
  5
1D7
100
AcDbEntity
  8
____1
 62
     7
100
AcDbLine
 10
-42.0
 20
-24.5
 30
0.0
 11
-42.58945
 21
-26.69987
 31
0.0
  0
LINE
  5
1D8
100
AcDbEntity
  8
____1
 62
     7
100
AcDbLine
 10
-42.0
 20
-119.5
 30
0.0
 11
-42.58945
 21
-117.30013
 31
0.0
  0
LINE
  5
1D9
100
AcDbEntity
  8
____1
 62
     7
100
AcDbLine
 10
-42.0
 20
-119.5
 30
0.0
 11
-41.41055
 21
-117.30013
 31
0.0
  0
LINE
  5
1D5
100
AcDbEntity
  8
____1
  6
CONTINUOUS
 62
     7
100
AcDbLine
 10
-42.0
 20
-24.5
 30
0.0
 11
-42.0
 21
-119.5
 31
0.0
  0
INSERT
  5
1DA
100
AcDbEntity
  8
____1
100
AcDbBlockReference
  2
*G9
 10
0.0
 20
0.0
 30
0.0
  0
LINE
  5
1DB
100
AcDbEntity
  8
____1
  6
CONTINUOUS
 62
     7
100
AcDbLine
 10
-59.0
 20
-66.0
 30
0.0
 11
-50.0
 21
-66.0
 31
0.0
  0
LINE
  5
1DC
100
AcDbEntity
  8
____1
  6
CONTINUOUS
 62
     7
100
AcDbLine
 10
-59.0
 20
-119.5
 30
0.0
 11
-50.0
 21
-119.5
 31
0.0
  0
LINE
  5
1DE
100
AcDbEntity
  8
____1
 62
     7
100
AcDbLine
 10
-52.0
 20
-66.0
 30
0.0
 11
-51.41055
 21
-68.19987
 31
0.0
  0
LINE
  5
1DF
100
AcDbEntity
  8
____1
 62
     7
100
AcDbLine
 10
-52.0
 20
-66.0
 30
0.0
 11
-52.58945
 21
-68.19987
 31
0.0
  0
LINE
  5
1E0
100
AcDbEntity
  8
____1
 62
     7
100
AcDbLine
 10
-52.0
 20
-119.5
 30
0.0
 11
-52.58945
 21
-117.30013
 31
0.0
  0
LINE
  5
1E1
100
AcDbEntity
  8
____1
 62
     7
100
AcDbLine
 10
-52.0
 20
-119.5
 30
0.0
 11
-51.41055
 21
-117.30013
 31
0.0
  0
LINE
  5
1DD
100
AcDbEntity
  8
____1
  6
CONTINUOUS
 62
     7
100
AcDbLine
 10
-52.0
 20
-66.0
 30
0.0
 11
-52.0
 21
-119.5
 31
0.0
  0
INSERT
  5
1E2
100
AcDbEntity
  8
____1
100
AcDbBlockReference
  2
*G10
 10
0.0
 20
0.0
 30
0.0
  0
LWPOLYLINE
  5
1E3
100
AcDbEntity
  8
____
  6
CONTINUOUS
 62
     7
100
AcDbPolyline
 90
        5
 70
   129
 43
0.0
 10
-111.0
 20
116.32
 10
-101.0
 20
116.32
 10
-101.0
 20
79.32
 10
-111.0
 20
79.32
 10
-111.0
 20
116.32
  0
LWPOLYLINE
  5
1E4
100
AcDbEntity
  8
____
  6
CONTINUOUS
 62
     7
100
AcDbPolyline
 90
        5
 70
   129
 43
0.0
 10
-112.5
 20
79.32
 10
-99.5
 20
79.32
 10
-99.5
 20
61.32
 10
-112.5
 20
61.32
 10
-112.5
 20
79.32
  0
LWPOLYLINE
  5
1E5
100
AcDbEntity
  8
____
  6
CONTINUOUS
 62
     7
100
AcDbPolyline
 90
        4
 70
     1
 43
0.0
 10
-104.594
 20
105.022
 10
-119.948
 20
100.522
 10
-119.667
 20
99.562
 10
-104.312
 20
104.062
  0
LWPOLYLINE
  5
1EB
100
AcDbEntity
  8
____
  6
CONTINUOUS
 62
     7
100
AcDbPolyline
 90
        5
 70
   129
 43
0.0
 10
-112.0
 20
109.82
 42
-0.414214
 10
-106.0
 20
115.82
 42
-0.414214
 10
-100.0
 20
109.82
 42
-0.414214
 10
-106.0
 20
103.82
 42
-0.414214
 10
-112.0
 20
109.82
 42
-0.414214
  0
LWPOLYLINE
  5
1EC
100
AcDbEntity
  8
____
  6
CONTINUOUS
 62
     7
100
AcDbPolyline
 90
        5
 70
   129
 43
0.0
 10
-111.0
 20
109.82
 42
-0.414214
 10
-106.0
 20
114.82
 42
-0.414214
 10
-101.0
 20
109.82
 42
-0.414214
 10
-106.0
 20
104.82
 42
-0.414214
 10
-111.0
 20
109.82
 42
-0.414214
  0
LINE
  5
1ED
100
AcDbEntity
  8
____
  6
CONTINUOUS
 62
     7
100
AcDbLine
 10
-118.0
 20
109.82
 30
0.0
 11
-29.0
 21
109.82
 31
0.0
  0
LWPOLYLINE
  5
1EE
100
AcDbEntity
  8
____
  6
CONTINUOUS
 62
     7
100
AcDbPolyline
 90
        5
 70
   129
 43
0.0
 10
-110.0
 20
98.32
 10
-78.0
 20
98.32
 10
-78.0
 20
87.32
 10
-110.0
 20
87.32
 10
-110.0
 20
98.32
  0
LWPOLYLINE
  5
1EF
100
AcDbEntity
  8
____
  6
CONTINUOUS
 62
     7
100
AcDbPolyline
 90
        5
 70
   129
 43
0.0
 10
-118.0
 20
97.82
 42
-0.414214
 10
-115.0
 20
100.82
 42
-0.414214
 10
-112.0
 20
97.82
 42
-0.414214
 10
-115.0
 20
94.82
 42
-0.414214
 10
-118.0
 20
97.82
 42
-0.414214
  0
LWPOLYLINE
  5
1F0
100
AcDbEntity
  8
____
  6
VECTORWORKS_DASH_08
 62
     7
100
AcDbPolyline
 90
        6
 70
   128
 43
0.0
 10
-114.132
 20
110.881
 10
-87.969
 20
84.718
 10
-89.029
 20
83.657
 10
-76.302
 20
70.929
 10
-77.362
 20
69.869
 10
-34.711
 20
27.217
  0
LWPOLYLINE
  5
1F1
100
AcDbEntity
  8
____
  6
VECTORWORKS_DASH_08
 62
     7
100
AcDbPolyline
 90
        7
 70
   128
 43
0.0
 10
-23.397
 20
38.531
 10
-66.048
 20
81.182
 10
-67.109
 20
80.122
 10
-79.837
 20
92.849
 10
-80.898
 20
91.789
 10
-107.061
 20
117.952
 10
-114.132
 20
110.881
  0
LWPOLYLINE
  5
1F2
100
AcDbEntity
  8
____
  6
VECTORWORKS_DASH_08
 62
     7
100
AcDbPolyline
 90
        4
 70
   128
 43
0.0
 10
-169.0
 20
55.82
 10
-76.0
 20
55.82
 42
-0.414214
 10
-46.0
 20
25.82
 10
-46.0
 20
20.82
  0
LWPOLYLINE
  5
1F3
100
AcDbEntity
  8
____
  6
CONTINUOUS
 62
     7
100
AcDbPolyline
 90
        4
 70
     1
 43
0.0
 10
-100.016
 20
107.836
 10
-104.258
 20
103.593
 10
-86.227
 20
85.562
 10
-81.984
 20
89.804
  0
LWPOLYLINE
  5
1F9
100
AcDbEntity
  8
____
  6
CONTINUOUS
 62
     7
100
AcDbPolyline
 90
        4
 70
     0
 43
0.0
 10
-98.0
 20
22.82
 10
-98.0
 20
61.32
 10
-114.0
 20
61.32
 10
-114.0
 20
22.82
  0
LWPOLYLINE
  5
1FF
100
AcDbEntity
  8
____
  6
CONTINUOUS
 62
     7
100
AcDbPolyline
 90
        5
 70
   128
 43
0.0
 10
-94.5
 20
25.32
 10
-96.77096
 20
23.42753
 42
-0.33612
 10
-104.5
 20
23.07
 42
0.272976
 10
-112.84166
 20
23.64917
 10
-117.5
 20
21.32
  0
LWPOLYLINE
  5
200
100
AcDbEntity
  8
____
  6
CONTINUOUS
 62
     7
100
AcDbPolyline
 90
        5
 70
   128
 43
0.0
 10
-22.283
 20
42.366
 10
-22.55058
 20
39.42224
 42
-0.336117
 10
-27.763
 20
33.704
 42
0.27297
 10
-34.07102
 20
28.21493
 10
-35.718
 20
23.274
  0
TEXT
  5
201
100
AcDbEntity
  8
____1
 62
     7
100
AcDbText
 10
-38.932
 20
124.46
 30
0.0
 40
2.54
  1
近接スイッチ
 11
-38.932
 21
127.0
 31
0.0
100
AcDbText
 73
     3
  0
TEXT
  5
202
100
AcDbEntity
  8
____1
 62
     7
100
AcDbText
 10
-29.826
 20
117.45
 30
0.0
 40
2.54
  1
マグネット
 11
-29.826
 21
119.99
 31
0.0
100
AcDbText
 73
     3
  0
LINE
  5
203
100
AcDbEntity
  8
____
  6
VECTORWORKS_DASH_09
 62
     7
100
AcDbLine
 10
-106.0
 20
124.82
 30
0.0
 11
-106.0
 21
21.32
 31
0.0
  0
LINE
  5
204
100
AcDbEntity
  8
____
  6
VECTORWORKS_DASH_09
 62
     7
100
AcDbLine
 10
-113.593
 20
117.663
 30
0.0
 11
-26.883
 21
30.953
 31
0.0
  0
LWPOLYLINE
  5
205
100
AcDbEntity
  8
____
  6
CONTINUOUS
 62
     7
100
AcDbPolyline
 90
        5
 70
   129
 43
0.0
 10
-146.0
 20
120.82
 10
-66.0
 20
120.82
 10
-66.0
 20
85.82
 10
-146.0
 20
85.82
 10
-146.0
 20
120.82
  0
LINE
  5
206
100
AcDbEntity
  8
____
  6
CONTINUOUS
 62
     7
100
AcDbLine
 10
-17.776
 20
122.5925
 30
0.0
 11
-38.932
 21
122.5925
 31
0.0
  0
LINE
  5
208
100
AcDbEntity
  8
____
 62
     7
100
AcDbLine
 10
-84.0
 20
98.32
 30
0.0
 11
-81.59604
 21
100.56173
 31
0.0
  0
LINE
  5
209
100
AcDbEntity
  8
____
 62
     7
100
AcDbLine
 10
-84.0
 20
98.32
 30
0.0
 11
-80.79725
 21
99.05941
 31
0.0
  0
LINE
  5
207
100
AcDbEntity
  8
____
  6
CONTINUOUS
 62
     7
100
AcDbLine
 10
-38.932
 20
122.5925
 30
0.0
 11
-84.0
 21
98.32
 31
0.0
  0
LINE
  5
20A
100
AcDbEntity
  8
____
  6
CONTINUOUS
 62
     7
100
AcDbLine
 10
-15.0
 20
115.5825
 30
0.0
 11
-29.826
 21
115.5825
 31
0.0
  0
LINE
  5
20C
100
AcDbEntity
  8
____
 62
     7
100
AcDbLine
 10
-85.029
 20
92.849
 30
0.0
 11
-82.40389
 21
94.82717
 31
0.0
  0
LINE
  5
20D
100
AcDbEntity
  8
____
 62
     7
100
AcDbLine
 10
-85.029
 20
92.849
 30
0.0
 11
-81.7665
 21
93.24958
 31
0.0
  0
LINE
  5
20B
100
AcDbEntity
  8
____
  6
CONTINUOUS
 62
     7
100
AcDbLine
 10
-29.826
 20
115.5825
 30
0.0
 11
-85.029
 21
92.849
 31
0.0
  0
LINE
  5
20E
100
AcDbEntity
  8
____1
 62
     7
100
AcDbLine
 10
-31.75
 20
109.82
 30
0.0
 11
-31.16055
 21
107.62013
 31
0.0
  0
LINE
  5
20F
100
AcDbEntity
  8
____1
 62
     7
100
AcDbLine
 10
-31.75
 20
109.82
 30
0.0
 11
-32.33945
 21
107.62013
 31
0.0
  0
LINE
  5
210
100
AcDbEntity
  8
____1
 62
     7
100
AcDbLine
 10
-53.4241
 20
57.4941
 30
0.0
 11
-52.28536
 21
59.46645
 31
0.0
  0
LINE
  5
211
100
AcDbEntity
  8
____1
 62
     7
100
AcDbLine
 10
-53.4241
 20
57.4941
 30
0.0
 11
-51.45175
 21
58.63284
 31
0.0
  0
ARC
  5
212
100
AcDbEntity
  8
____1
  6
CONTINUOUS
 62
     7
100
AcDbCircle
 10
-105.75
 20
109.82
 30
0.0
 40
74.0
100
AcDbArc
 50
315.0
 51
0.0
  0
INSERT
  5
213
100
AcDbEntity
  8
____1
100
AcDbBlockReference
  2
*G11
 10
0.0
 20
0.0
 30
0.0
  0
LINE
  5
214
100
AcDbEntity
  8
____
  6
CONTINUOUS
 62
     7
100
AcDbLine
 10
21.0
 20
92.35125
 30
0.0
 11
-18.0
 21
92.35125
 31
0.0
  0
LINE
  5
216
100
AcDbEntity
  8
____
 62
     7
100
AcDbLine
 10
-37.0
 20
81.32
 30
0.0
 11
-34.67574
 21
83.64426
 31
0.0
  0
LINE
  5
217
100
AcDbEntity
  8
____
 62
     7
100
AcDbLine
 10
-37.0
 20
81.32
 30
0.0
 11
-33.825
 21
82.17074
 31
0.0
  0
LINE
  5
215
100
AcDbEntity
  8
____
  6
CONTINUOUS
 62
     7
100
AcDbLine
 10
-18.0
 20
92.35125
 30
0.0
 11
-37.0
 21
81.32
 31
0.0
  0
TEXT
  5
218
100
AcDbEntity
  8
____
 62
     7
100
AcDbText
 10
-17.0
 20
93.78
 30
0.0
 40
2.54
  1
ラックストッパー作動範囲
 11
-17.0
 21
96.32
 31
0.0
100
AcDbText
 73
     3
  0
LINE
  5
219
100
AcDbEntity
  8
____1
 62
     7
100
AcDbLine
 10
-53.6741
 20
57.7441
 30
0.0
 11
-54.81283
 21
55.77175
 31
0.0
  0
LINE
  5
21A
100
AcDbEntity
  8
____1
 62
     7
100
AcDbLine
 10
-53.6741
 20
57.7441
 30
0.0
 11
-55.64645
 21
56.60537
 31
0.0
  0
LINE
  5
21B
100
AcDbEntity
  8
____1
 62
     7
100
AcDbLine
 10
-106.0
 20
36.07
 30
0.0
 11
-103.80013
 21
36.65945
 31
0.0
  0
LINE
  5
21C
100
AcDbEntity
  8
____1
 62
     7
100
AcDbLine
 10
-106.0
 20
36.07
 30
0.0
 11
-103.80013
 21
35.48055
 31
0.0
  0
ARC
  5
21D
100
AcDbEntity
  8
____1
  6
CONTINUOUS
 62
     7
100
AcDbCircle
 10
-106.0
 20
110.07
 30
0.0
 40
74.0
100
AcDbArc
 50
270.0
 51
315.0
  0
INSERT
  5
21E
100
AcDbEntity
  8
____1
100
AcDbBlockReference
  2
*G12
 10
0.0
 20
0.0
 30
0.0
  0
LINE
  5
21F
100
AcDbEntity
  8
____
  6
CONTINUOUS
 62
     7
100
AcDbLine
 10
-108.0
 20
120.82
 30
0.0
 11
-108.0
 21
125.0
 31
0.0
  0
LINE
  5
220
100
AcDbEntity
  8
____
  6
CONTINUOUS
 62
     7
100
AcDbLine
 10
-104.0
 20
120.82
 30
0.0
 11
-104.0
 21
125.0
 31
0.0
  0
LINE
  5
221
100
AcDbEntity
  8
____
  6
CONTINUOUS
 62
     7
100
AcDbLine
 10
-110.0
 20
127.0
 30
0.0
 11
-170.0
 21
127.0
 31
0.0
  0
LINE
  5
222
100
AcDbEntity
  8
____
  6
CONTINUOUS
 62
     7
100
AcDbLine
 10
-110.0
 20
131.0
 30
0.0
 11
-170.0
 21
131.0
 31
0.0
  0
LINE
  5
223
100
AcDbEntity
  8
____
  6
CONTINUOUS
 62
     7
100
AcDbLine
 10
-172.0
 20
125.0
 30
0.0
 11
-172.0
 21
94.0
 31
0.0
  0
LINE
  5
224
100
AcDbEntity
  8
____
  6
CONTINUOUS
 62
     7
100
AcDbLine
 10
-176.0
 20
125.0
 30
0.0
 11
-176.0
 21
94.0
 31
0.0
  0
ARC
  5
225
100
AcDbEntity
  8
____
  6
CONTINUOUS
 62
     7
100
AcDbCircle
 10
-170.0
 20
125.0
 30
0.0
 40
2.0
100
AcDbArc
 50
90.0
 51
180.0
  0
ARC
  5
226
100
AcDbEntity
  8
____
  6
CONTINUOUS
 62
     7
100
AcDbCircle
 10
-170.0
 20
125.0
 30
0.0
 40
6.0
100
AcDbArc
 50
90.0
 51
180.0
  0
ARC
  5
227
100
AcDbEntity
  8
____
  6
CONTINUOUS
 62
     7
100
AcDbCircle
 10
-110.0
 20
125.0
 30
0.0
 40
6.0
100
AcDbArc
 50
0.0
 51
90.0
  0
ARC
  5
228
100
AcDbEntity
  8
____
  6
CONTINUOUS
 62
     7
100
AcDbCircle
 10
-110.0
 20
125.0
 30
0.0
 40
2.0
100
AcDbArc
 50
0.0
 51
90.0
  0
LWPOLYLINE
  5
229
100
AcDbEntity
  8
____
  6
CONTINUOUS
 62
     7
100
AcDbPolyline
 90
        5
 70
   129
 43
0.0
 10
-180.0
 20
94.0
 10
-168.0
 20
94.0
 10
-168.0
 20
74.0
 10
-180.0
 20
74.0
 10
-180.0
 20
94.0
  0
TEXT
  5
22A
100
AcDbEntity
  8
____
 62
     7
100
AcDbText
 10
-154.0
 20
74.46
 30
0.0
 40
2.54
  1
リード線6m
 11
-154.0
 21
77.0
 31
0.0
100
AcDbText
 73
     3
  0
LINE
  5
22B
100
AcDbEntity
  8
____
  6
CONTINUOUS
 62
     7
100
AcDbLine
 10
-136.37875
 20
72.77725
 30
0.0
 11
-154.0
 21
72.77725
 31
0.0
  0
LINE
  5
22D
100
AcDbEntity
  8
____
 62
     7
100
AcDbLine
 10
-164.0
 20
127.0
 30
0.0
 11
-162.61085
 21
124.02097
 31
0.0
  0
LINE
  5
22E
100
AcDbEntity
  8
____
 62
     7
100
AcDbLine
 10
-164.0
 20
127.0
 30
0.0
 11
-164.28648
 21
123.72551
 31
0.0
  0
LINE
  5
22C
100
AcDbEntity
  8
____
  6
CONTINUOUS
 62
     7
100
AcDbLine
 10
-154.0
 20
72.77725
 30
0.0
 11
-164.0
 21
127.0
 31
0.0
  0
TEXT
  5
22F
100
AcDbEntity
  8
____
 62
     7
100
AcDbText
 10
-153.0
 20
64.46
 30
0.0
 40
2.54
  1
本体接続コネクター
 11
-153.0
 21
67.0
 31
0.0
100
AcDbText
 73
     3
  0
LINE
  5
230
100
AcDbEntity
  8
____
  6
CONTINUOUS
 62
     7
100
AcDbLine
 10
-124.425
 20
63.03125
 30
0.0
 11
-153.0
 21
63.03125
 31
0.0
  0
LINE
  5
232
100
AcDbEntity
  8
____
 62
     7
100
AcDbLine
 10
-168.0
 20
78.0
 30
0.0
 11
-165.15337
 21
76.3565
 31
0.0
  0
LINE
  5
233
100
AcDbEntity
  8
____
 62
     7
100
AcDbLine
 10
-168.0
 20
78.0
 30
0.0
 11
-166.3565
 21
75.15337
 31
0.0
  0
LINE
  5
231
100
AcDbEntity
  8
____
  6
CONTINUOUS
 62
     7
100
AcDbLine
 10
-153.0
 20
63.03125
 30
0.0
 11
-168.0
 21
78.0
 31
0.0
  0
LWPOLYLINE
  5
234
100
AcDbEntity
  8
____
  6
CONTINUOUS
 62
     7
100
AcDbPolyline
 90
       22
 70
     1
 43
0.0
 10
-182.14509
 20
107.21198
 10
-181.68397
 20
106.75086
 10
-181.22284
 20
106.28973
 10
-180.53115
 20
106.05917
 10
-179.37833
 20
105.59804
 10
-178.68664
 20
105.36748
 10
-177.76439
 20
105.13691
 10
-176.84213
 20
104.67579
 10
-175.91988
 20
104.67579
 10
-174.99763
 20
104.44522
 10
-174.07537
 20
104.44522
 10
-173.15312
 20
104.44522
 10
-172.23087
 20
104.44522
 10
-171.30861
 20
104.44522
 10
-170.61692
 20
104.21466
 10
-169.69467
 20
103.9841
 10
-169.00298
 20
103.75353
 10
-168.31129
 20
103.29241
 10
-167.85016
 20
102.83128
 10
-167.38903
 20
102.37015
 10
-166.69734
 20
102.13959
 10
-166.23622
 20
101.4479
  0
LWPOLYLINE
  5
24C
100
AcDbEntity
  8
____
  6
CONTINUOUS
 62
     7
100
AcDbPolyline
 90
       22
 70
     1
 43
0.0
 10
-181.63626
 20
109.07507
 10
-181.17514
 20
108.61395
 10
-180.71401
 20
108.15282
 10
-180.02232
 20
107.92226
 10
-178.8695
 20
107.46113
 10
-178.17781
 20
107.23057
 10
-177.25556
 20
107.0
 10
-176.3333
 20
106.53888
 10
-175.41105
 20
106.53888
 10
-174.4888
 20
106.30831
 10
-173.56654
 20
106.30831
 10
-172.64429
 20
106.30831
 10
-171.72204
 20
106.30831
 10
-170.79978
 20
106.30831
 10
-170.10809
 20
106.07775
 10
-169.18584
 20
105.84719
 10
-168.49415
 20
105.61662
 10
-167.80246
 20
105.1555
 10
-167.34133
 20
104.69437
 10
-166.8802
 20
104.23324
 10
-166.18851
 20
104.00268
 10
-165.72739
 20
103.31099
  0
TEXT
  5
264
100
AcDbEntity
  8
____
 62
     7
100
AcDbText
 10
137.0
 20
-134.13098
 30
0.0
 40
7.62
  1
A320-109
 11
137.0
 21
-126.51098
 31
0.0
100
AcDbText
 73
     3
  0
TEXT
  5
265
100
AcDbEntity
  8
____
 62
     7
100
AcDbText
 10
-78.43616
 20
-135.37005
 30
0.0
 40
1.69165
  1
01.7.11
 11
-78.43616
 21
-133.6784
 31
0.0
100
AcDbText
 73
     3
  0
ENDSEC
  0
SECTION
  2
OBJECTS
  0
DICTIONARY
  5
352
100
AcDbDictionary
  3
ACAD_GROUP
350
353
  3
ACAD_MLINESTYLE
350
360
  3
ACDBVARIABLEDICTIONARY
350
381
  0
DICTIONARY
  5
353
102
{ACAD_REACTORS
330
352
102
}
100
AcDbDictionary
  0
DICTIONARY
  5
360
102
{ACAD_REACTORS
330
352
102
}
100
AcDbDictionary
  3
STANDARD
350
361
  0
DICTIONARY
  5
381
102
{ACAD_REACTORS
330
352
102
}
100
AcDbDictionary
  3
DIMADEC
350
382
  0
MLINESTYLE
  5
361
102
{ACAD_REACTORS
330
360
102
}
100
AcDbMlineStyle
  2
STANDARD
 70
     0
  3

 62
   256
 51
90.0
 52
90.0
 71
     2
 49
0.5
 62
   256
  6
BYLAYER
 49
-0.5
 62
   256
  6
BYLAYER
  0
DICTIONARYVAR
  5
382
102
{ACAD_REACTORS
330
381
102
}
100
DictionaryVariables
280
     0
  1
0
  0
ENDSEC
  0
EOF
