  0
SECTION
  2
HEADER
  9
$ACADVER
  1
AC1012
  9
$DWGCODEPAGE
  3
dos932
  9
$INSBASE
 10
0.0
 20
0.0
 30
0.0
  9
$EXTMIN
 10
-1955.632
 20
-1360.0
 30
0.0
  9
$EXTMAX
 10
1954.608
 20
1360.0
 30
0.0
  9
$LIMMIN
 10
0.0
 20
0.0
  9
$LIMMAX
 10
0.0
 20
0.0
  9
$ORTHOMODE
 70
     0
  9
$REGENMODE
 70
     1
  9
$FILLMODE
 70
     1
  9
$QTEXTMODE
 70
     0
  9
$MIRRTEXT
 70
     1
  9
$DRAGMODE
 70
     2
  9
$LTSCALE
 40
10.0
  9
$OSMODE
 70
     0
  9
$ATTMODE
 70
     1
  9
$TEXTSIZE
 40
0.2
  9
$TRACEWID
 40
0.05
  9
$TEXTSTYLE
  7
STANDARD
  9
$CLAYER
  8
0
  9
$CELTYPE
  6
CONTINUOUS
  9
$CECOLOR
 62
   256
  9
$CELTSCALE
 40
1.0
  9
$DELOBJ
 70
     1
  9
$DISPSILH
 70
     0
  9
$DIMSCALE
 40
1.0
  9
$DIMASZ
 40
0.18
  9
$DIMEXO
 40
0.0625
  9
$DIMDLI
 40
0.38
  9
$DIMRND
 40
0.0
  9
$DIMDLE
 40
0.0
  9
$DIMEXE
 40
0.18
  9
$DIMTP
 40
0.0
  9
$DIMTM
 40
0.0
  9
$DIMTXT
 40
0.18
  9
$DIMCEN
 40
0.09
  9
$DIMTSZ
 40
0.0
  9
$DIMTOL
 70
     0
  9
$DIMLIM
 70
     0
  9
$DIMTIH
 70
     1
  9
$DIMTOH
 70
     1
  9
$DIMSE1
 70
     0
  9
$DIMSE2
 70
     0
  9
$DIMTAD
 70
     0
  9
$DIMZIN
 70
     0
  9
$DIMBLK
  1

  9
$DIMASO
 70
     1
  9
$DIMSHO
 70
     1
  9
$DIMPOST
  1

  9
$DIMAPOST
  1

  9
$DIMALT
 70
     0
  9
$DIMALTD
 70
     2
  9
$DIMALTF
 40
25.4
  9
$DIMLFAC
 40
1.0
  9
$DIMTOFL
 70
     0
  9
$DIMTVP
 40
0.0
  9
$DIMTIX
 70
     0
  9
$DIMSOXD
 70
     0
  9
$DIMSAH
 70
     0
  9
$DIMBLK1
  1

  9
$DIMBLK2
  1

  9
$DIMSTYLE
  2
STANDARD
  9
$DIMCLRD
 70
     0
  9
$DIMCLRE
 70
     0
  9
$DIMCLRT
 70
     0
  9
$DIMTFAC
 40
1.0
  9
$DIMGAP
 40
0.09
  9
$DIMJUST
 70
     0
  9
$DIMSD1
 70
     0
  9
$DIMSD2
 70
     0
  9
$DIMTOLJ
 70
     1
  9
$DIMTZIN
 70
     0
  9
$DIMALTZ
 70
     0
  9
$DIMALTTZ
 70
     0
  9
$DIMFIT
 70
     3
  9
$DIMUPT
 70
     0
  9
$DIMUNIT
 70
     2
  9
$DIMDEC
 70
     4
  9
$DIMTDEC
 70
     4
  9
$DIMALTU
 70
     2
  9
$DIMALTTD
 70
     2
  9
$DIMTXSTY
  7
STANDARD
  9
$DIMAUNIT
 70
     0
  9
$LUNITS
 70
     2
  9
$LUPREC
 70
     4
  9
$SKETCHINC
 40
0.1
  9
$FILLETRAD
 40
0.0
  9
$AUNITS
 70
     0
  9
$AUPREC
 70
     0
  9
$MENU
  1
acad
  9
$ELEVATION
 40
0.0
  9
$PELEVATION
 40
0.0
  9
$THICKNESS
 40
0.0
  9
$LIMCHECK
 70
     0
  9
$BLIPMODE
 70
     1
  9
$CHAMFERA
 40
0.0
  9
$CHAMFERB
 40
0.0
  9
$CHAMFERC
 40
0.0
  9
$CHAMFERD
 40
0.0
  9
$SKPOLY
 70
     0
  9
$TDCREATE
 40
2452132.391238425
  9
$TDUPDATE
 40
2452132.400284143
  9
$TDINDWG
 40
0.0011412037
  9
$TDUSRTIMER
 40
0.0011412037
  9
$USRTIMER
 70
     1
  9
$ANGBASE
 50
0.0
  9
$ANGDIR
 70
     0
  9
$PDMODE
 70
     0
  9
$PDSIZE
 40
0.0
  9
$PLINEWID
 40
0.0
  9
$COORDS
 70
     0
  9
$SPLFRAME
 70
     0
  9
$SPLINETYPE
 70
     6
  9
$SPLINESEGS
 70
     8
  9
$ATTDIA
 70
     0
  9
$ATTREQ
 70
     1
  9
$HANDLING
 70
     1
  9
$HANDSEED
  5
58A
  9
$SURFTAB1
 70
     6
  9
$SURFTAB2
 70
     6
  9
$SURFTYPE
 70
     6
  9
$SURFU
 70
     6
  9
$SURFV
 70
     6
  9
$UCSNAME
  2

  9
$UCSORG
 10
0.0
 20
0.0
 30
0.0
  9
$UCSXDIR
 10
1.0
 20
0.0
 30
0.0
  9
$UCSYDIR
 10
0.0
 20
1.0
 30
0.0
  9
$PUCSNAME
  2

  9
$PUCSORG
 10
0.0
 20
0.0
 30
0.0
  9
$PUCSXDIR
 10
1.0
 20
0.0
 30
0.0
  9
$PUCSYDIR
 10
0.0
 20
1.0
 30
0.0
  9
$USERI1
 70
     0
  9
$USERI2
 70
     0
  9
$USERI3
 70
     0
  9
$USERI4
 70
     0
  9
$USERI5
 70
     0
  9
$USERR1
 40
0.0
  9
$USERR2
 40
0.0
  9
$USERR3
 40
0.0
  9
$USERR4
 40
0.0
  9
$USERR5
 40
0.0
  9
$WORLDVIEW
 70
     1
  9
$SHADEDGE
 70
     3
  9
$SHADEDIF
 70
    70
  9
$TILEMODE
 70
     1
  9
$MAXACTVP
 70
    16
  9
$PINSBASE
 10
0.0
 20
0.0
 30
0.0
  9
$PLIMCHECK
 70
     0
  9
$PEXTMIN
 10
1.000000E+20
 20
1.000000E+20
 30
1.000000E+20
  9
$PEXTMAX
 10
-1.000000E+20
 20
-1.000000E+20
 30
-1.000000E+20
  9
$PLIMMIN
 10
0.0
 20
0.0
  9
$PLIMMAX
 10
12.0
 20
9.0
  9
$UNITMODE
 70
     0
  9
$VISRETAIN
 70
     0
  9
$PLINEGEN
 70
     1
  9
$PSLTSCALE
 70
     0
  9
$TREEDEPTH
 70
  3020
  9
$PICKSTYLE
 70
     1
  9
$CMLSTYLE
  2
STANDARD
  9
$CMLJUST
 70
     0
  9
$CMLSCALE
 40
1.0
  9
$SAVEIMAGES
 70
     0
  0
ENDSEC
  0
SECTION
  2
CLASSES
  0
CLASS
  1
LWPOLYLINE
  2
AcDbPolyline
  3
"AutoCAD"
 90
    32768
280
     0
281
     1
  0
CLASS
  1
IMAGE
  2
AcDbRasterImage
  3
ISM
 90
    32895
280
     0
281
     1
  0
CLASS
  1
OLE2FRAME
  2
AcDbOle2Frame
  3
""
 90
    32768
280
     0
281
     1
  0
CLASS
  1
HATCH
  2
AcDbHatch
  3
"ACAD_SEDONA"
 90
    32768
280
     0
281
     1
  0
CLASS
  1
DICTIONARYVAR
  2
AcDbDictionaryVar
  3
"AutoCAD"
 90
    32768
280
     0
281
     0
  0
CLASS
  1
RASTERVARIABLES
  2
AcDbRasterVariables
  3
ISM
 90
    32768
280
     0
281
     0
  0
CLASS
  1
IMAGEDEF
  2
AcDbRasterImageDef
  3
ISM
 90
    32768
280
     0
281
     0
  0
CLASS
  1
IMAGEDEF_REACTOR
  2
AcDbRasterImageDefReactor
  3
ISM
 90
    32769
280
     0
281
     0
  0
CLASS
  1
SPATIAL_FILTER
  2
AcDbSpatialFilter
  3
"Acad"
 90
    32768
280
     0
281
     0
  0
CLASS
  1
XRECORD
  2
AcDbXrecord
  3
"<Built In>"
 90
    32768
280
     0
281
     0
  0
CLASS
  1
SORTENTSTABLE
  2
AcDbSortentsTable
  3
"AutoCAD"
 90
    32768
280
     0
281
     0
  0
CLASS
  1
LAYER_INDEX
  2
AcDbLayerIndex
  3
"Acad"
 90
    32768
280
     0
281
     0
  0
CLASS
  1
SPATIAL_INDEX
  2
AcDbSpatialIndex
  3
"Acad"
 90
    32768
280
     0
281
     0
  0
CLASS
  1
OBJECT_PTR
  2
CAseDLPNTableRecord
  3
"ASE-LPNTableRecord"
 90
    32769
280
     0
281
     0
  0
ENDSEC
  0
SECTION
  2
TABLES
  0
TABLE
  2
VPORT
  5
7
100
AcDbSymbolTable
 70
     2
  0
VPORT
  5
589
100
AcDbSymbolTableRecord
100
AcDbViewportTableRecord
  2
*ACTIVE
 70
     0
 10
0.0
 20
0.0
 11
1.0
 21
1.0
 12
-0.625491
 22
0.000007
 13
0.0
 23
0.0
 14
1.0
 24
1.0
 15
0.0
 25
0.0
 16
0.0
 26
0.0
 36
1.0
 17
0.0
 27
0.0
 37
0.0
 40
2750.960833
 41
1.740602
 42
50.0
 43
0.0
 44
0.0
 50
0.0
 51
0.0
 71
     0
 72
   100
 73
     1
 74
     1
 75
     0
 76
     0
 77
     0
 78
     0
  0
ENDTAB
  0
TABLE
  2
LTYPE
  5
4
100
AcDbSymbolTable
 70
    10
  0
LTYPE
  5
11
100
AcDbSymbolTableRecord
100
AcDbLinetypeTableRecord
  2
BYBLOCK
 70
     0
  3

 72
    65
 73
     0
 40
0.0
  0
LTYPE
  5
12
100
AcDbSymbolTableRecord
100
AcDbLinetypeTableRecord
  2
BYLAYER
 70
     0
  3

 72
    65
 73
     0
 40
0.0
  0
LTYPE
  5
13
100
AcDbSymbolTableRecord
100
AcDbLinetypeTableRecord
  2
CONTINUOUS
 70
     0
  3
Solid line
 72
    65
 73
     0
 40
0.0
  0
LTYPE
  5
36
100
AcDbSymbolTableRecord
100
AcDbLinetypeTableRecord
  2
VECTORWORKS_DASH_01
 70
     0
  3
(unavailable)
 72
    65
 73
     2
 40
2.116537
 49
1.058075
 74
     0
 49
-1.058463
 74
     0
  0
LTYPE
  5
37
100
AcDbSymbolTableRecord
100
AcDbLinetypeTableRecord
  2
VECTORWORKS_DASH_02
 70
     0
  3
(unavailable)
 72
    65
 73
     2
 40
3.527692
 49
2.469229
 74
     0
 49
-1.058463
 74
     0
  0
LTYPE
  5
38
100
AcDbSymbolTableRecord
100
AcDbLinetypeTableRecord
  2
VECTORWORKS_DASH_03
 70
     0
  3
(unavailable)
 72
    65
 73
     2
 40
6.35
 49
5.291537
 74
     0
 49
-1.058463
 74
     0
  0
LTYPE
  5
39
100
AcDbSymbolTableRecord
100
AcDbLinetypeTableRecord
  2
VECTORWORKS_DASH_04
 70
     0
  3
(unavailable)
 72
    65
 73
     4
 40
33.513846
 49
20.108463
 74
     0
 49
-4.938846
 74
     0
 49
3.175
 74
     0
 49
-5.291537
 74
     0
  0
LTYPE
  5
3A
100
AcDbSymbolTableRecord
100
AcDbLinetypeTableRecord
  2
VECTORWORKS_DASH_05
 70
     0
  3
(unavailable)
 72
    65
 73
     2
 40
1.058075
 49
0.352692
 74
     0
 49
-0.705383
 74
     0
  0
LTYPE
  5
3B
100
AcDbSymbolTableRecord
100
AcDbLinetypeTableRecord
  2
VECTORWORKS_DASH_06
 70
     0
  3
(unavailable)
 72
    65
 73
     4
 40
32.102692
 49
21.519617
 74
     0
 49
-4.233075
 74
     0
 49
2.469617
 74
     0
 49
-3.880383
 74
     0
  0
LTYPE
  5
3C
100
AcDbSymbolTableRecord
100
AcDbLinetypeTableRecord
  2
VECTORWORKS_DASH_07
 70
     0
  3
(unavailable)
 72
    65
 73
     6
 40
9.525
 49
3.175
 74
     0
 49
-1.058075
 74
     0
 49
3.175
 74
     0
 49
-1.058463
 74
     0
 49
0.352692
 74
     0
 49
-0.705771
 74
     0
  0
LTYPE
  5
3D
100
AcDbSymbolTableRecord
100
AcDbLinetypeTableRecord
  2
VECTORWORKS_DASH_08
 70
     0
  3
(unavailable)
 72
    65
 73
     6
 40
6.35
 49
3.175
 74
     0
 49
-1.058075
 74
     0
 49
0.352692
 74
     0
 49
-0.705771
 74
     0
 49
0.352692
 74
     0
 49
-0.705771
 74
     0
  0
LTYPE
  5
3E
100
AcDbSymbolTableRecord
100
AcDbLinetypeTableRecord
  2
VECTORWORKS_DASH_09
 70
     0
  3
(unavailable)
 72
    65
 73
     4
 40
28.222308
 49
20.108463
 74
     0
 49
-2.116537
 74
     0
 49
3.175
 74
     0
 49
-2.822308
 74
     0
  0
ENDTAB
  0
TABLE
  2
LAYER
  5
2
100
AcDbSymbolTable
 70
     3
  0
LAYER
  5
14
100
AcDbSymbolTableRecord
100
AcDbLayerTableRecord
  2
0
 70
     0
 62
     7
  6
CONTINUOUS
  0
LAYER
  5
3F
100
AcDbSymbolTableRecord
100
AcDbLayerTableRecord
  2
____
 70
     0
 62
     7
  6
CONTINUOUS
  0
LAYER
  5
40
100
AcDbSymbolTableRecord
100
AcDbLayerTableRecord
  2
____1
 70
     0
 62
     7
  6
CONTINUOUS
  0
ENDTAB
  0
TABLE
  2
STYLE
  5
3
100
AcDbSymbolTable
 70
     1
  0
STYLE
  5
17
100
AcDbSymbolTableRecord
100
AcDbTextStyleTableRecord
  2
STANDARD
 70
     0
 40
0.0
 41
1.0
 50
0.0
 71
     0
 42
0.0
  3
txt
  4
BIGFONT.SHX
  0
ENDTAB
  0
TABLE
  2
VIEW
  5
5
100
AcDbSymbolTable
 70
     0
  0
ENDTAB
  0
TABLE
  2
UCS
  5
6
100
AcDbSymbolTable
 70
     0
  0
ENDTAB
  0
TABLE
  2
APPID
  5
8
100
AcDbSymbolTable
 70
     1
  0
APPID
  5
16
100
AcDbSymbolTableRecord
100
AcDbRegAppTableRecord
  2
ACAD
 70
     0
  0
ENDTAB
  0
TABLE
  2
DIMSTYLE
  5
9
100
AcDbSymbolTable
 70
     1
  0
DIMSTYLE
105
18
100
AcDbSymbolTableRecord
100
AcDbDimStyleTableRecord
  2
STANDARD
 70
     0
  3

  4

  5

  6

  7

 40
1.0
 41
0.18
 42
0.0625
 43
0.38
 44
0.18
 45
0.0
 46
0.0
 47
0.0
 48
0.0
140
0.18
141
0.09
142
0.0
143
25.4
144
1.0
145
0.0
146
1.0
147
0.09
 71
     0
 72
     0
 73
     1
 74
     1
 75
     0
 76
     0
 77
     0
 78
     0
170
     0
171
     2
172
     0
173
     0
174
     0
175
     0
176
     0
177
     0
178
     0
270
     2
271
     4
272
     4
273
     2
274
     2
340
17
275
     0
280
     0
281
     0
282
     0
283
     1
284
     0
285
     0
286
     0
287
     0
288
     0
  0
ENDTAB
  0
TABLE
  2
BLOCK_RECORD
  5
1
100
AcDbSymbolTable
 70
    25
  0
BLOCK_RECORD
  5
A
100
AcDbSymbolTableRecord
100
AcDbBlockTableRecord
  2
*MODEL_SPACE
  0
BLOCK_RECORD
  5
B
100
AcDbSymbolTableRecord
100
AcDbBlockTableRecord
  2
*PAPER_SPACE
  0
BLOCK_RECORD
  5
1D
100
AcDbSymbolTableRecord
100
AcDbBlockTableRecord
  2
*G0
  0
BLOCK_RECORD
  5
1E
100
AcDbSymbolTableRecord
100
AcDbBlockTableRecord
  2
*G1
  0
BLOCK_RECORD
  5
1F
100
AcDbSymbolTableRecord
100
AcDbBlockTableRecord
  2
*G2
  0
BLOCK_RECORD
  5
20
100
AcDbSymbolTableRecord
100
AcDbBlockTableRecord
  2
*G3
  0
BLOCK_RECORD
  5
21
100
AcDbSymbolTableRecord
100
AcDbBlockTableRecord
  2
*G4
  0
BLOCK_RECORD
  5
22
100
AcDbSymbolTableRecord
100
AcDbBlockTableRecord
  2
*G5
  0
BLOCK_RECORD
  5
23
100
AcDbSymbolTableRecord
100
AcDbBlockTableRecord
  2
*G6
  0
BLOCK_RECORD
  5
24
100
AcDbSymbolTableRecord
100
AcDbBlockTableRecord
  2
*G7
  0
BLOCK_RECORD
  5
25
100
AcDbSymbolTableRecord
100
AcDbBlockTableRecord
  2
*G8
  0
BLOCK_RECORD
  5
26
100
AcDbSymbolTableRecord
100
AcDbBlockTableRecord
  2
*G9
  0
BLOCK_RECORD
  5
27
100
AcDbSymbolTableRecord
100
AcDbBlockTableRecord
  2
*G10
  0
BLOCK_RECORD
  5
28
100
AcDbSymbolTableRecord
100
AcDbBlockTableRecord
  2
*G11
  0
BLOCK_RECORD
  5
29
100
AcDbSymbolTableRecord
100
AcDbBlockTableRecord
  2
*G12
  0
BLOCK_RECORD
  5
2A
100
AcDbSymbolTableRecord
100
AcDbBlockTableRecord
  2
*G13
  0
BLOCK_RECORD
  5
2B
100
AcDbSymbolTableRecord
100
AcDbBlockTableRecord
  2
*G14
  0
BLOCK_RECORD
  5
2C
100
AcDbSymbolTableRecord
100
AcDbBlockTableRecord
  2
*G15
  0
BLOCK_RECORD
  5
2D
100
AcDbSymbolTableRecord
100
AcDbBlockTableRecord
  2
*G16
  0
BLOCK_RECORD
  5
2E
100
AcDbSymbolTableRecord
100
AcDbBlockTableRecord
  2
*G17
  0
BLOCK_RECORD
  5
2F
100
AcDbSymbolTableRecord
100
AcDbBlockTableRecord
  2
*G18
  0
BLOCK_RECORD
  5
30
100
AcDbSymbolTableRecord
100
AcDbBlockTableRecord
  2
*G19
  0
BLOCK_RECORD
  5
31
100
AcDbSymbolTableRecord
100
AcDbBlockTableRecord
  2
*G20
  0
BLOCK_RECORD
  5
32
100
AcDbSymbolTableRecord
100
AcDbBlockTableRecord
  2
*G21
  0
BLOCK_RECORD
  5
33
100
AcDbSymbolTableRecord
100
AcDbBlockTableRecord
  2
*G22
  0
BLOCK_RECORD
  5
34
100
AcDbSymbolTableRecord
100
AcDbBlockTableRecord
  2
*G23
  0
BLOCK_RECORD
  5
35
100
AcDbSymbolTableRecord
100
AcDbBlockTableRecord
  2
*G24
  0
ENDTAB
  0
ENDSEC
  0
SECTION
  2
BLOCKS
  0
BLOCK
  5
D
100
AcDbEntity
  8
0
100
AcDbBlockBegin
  2
*MODEL_SPACE
 70
     0
 10
0.0
 20
0.0
 30
0.0
  3
*MODEL_SPACE
  1

  0
ENDBLK
  5
E
100
AcDbEntity
  8
0
100
AcDbBlockEnd
  0
BLOCK
  5
F
100
AcDbEntity
 67
     1
  8
0
100
AcDbBlockBegin
  2
*PAPER_SPACE
 70
     0
 10
0.0
 20
0.0
 30
0.0
  3
*PAPER_SPACE
  1

  0
ENDBLK
  5
10
100
AcDbEntity
 67
     1
  8
0
100
AcDbBlockEnd
  0
BLOCK
  5
41
100
AcDbEntity
  8
____1
100
AcDbBlockBegin
  2
*G0
 70
     1
 10
0.0
 20
0.0
 30
0.0
  3
*G0
  1

  0
TEXT
  5
42
100
AcDbEntity
  8
____1
 62
     7
100
AcDbText
 10
-1581.3118
 20
675.0139
 30
0.0
 40
28.2215
  1
750
 50
90.0
 11
-1609.5333
 21
675.0139
 31
0.0
100
AcDbText
 73
     3
  0
ENDBLK
  5
43
100
AcDbEntity
  8
____1
100
AcDbBlockEnd
  0
BLOCK
  5
44
100
AcDbEntity
  8
____1
100
AcDbBlockBegin
  2
*G1
 70
     1
 10
0.0
 20
0.0
 30
0.0
  3
*G1
  1

  0
TEXT
  5
45
100
AcDbEntity
  8
____1
 62
     7
100
AcDbText
 10
-1206.1861
 20
1195.1118
 30
0.0
 40
28.2215
  1
420
 11
-1206.1861
 21
1223.3333
 31
0.0
100
AcDbText
 73
     3
  0
ENDBLK
  5
46
100
AcDbEntity
  8
____1
100
AcDbBlockEnd
  0
BLOCK
  5
47
100
AcDbEntity
  8
____1
100
AcDbBlockBegin
  2
*G2
 70
     1
 10
0.0
 20
0.0
 30
0.0
  3
*G2
  1

  0
TEXT
  5
48
100
AcDbEntity
  8
____1
 62
     7
100
AcDbText
 10
-986.1861
 20
1275.1118
 30
0.0
 40
28.2215
  1
860
 11
-986.1861
 21
1303.3333
 31
0.0
100
AcDbText
 73
     3
  0
ENDBLK
  5
49
100
AcDbEntity
  8
____1
100
AcDbBlockEnd
  0
BLOCK
  5
4A
100
AcDbEntity
  8
____1
100
AcDbBlockBegin
  2
*G3
 70
     1
 10
0.0
 20
0.0
 30
0.0
  3
*G3
  1

  0
TEXT
  5
4B
100
AcDbEntity
  8
____1
 62
     7
100
AcDbText
 10
-441.3118
 20
1000.0139
 30
0.0
 40
28.2215
  1
100
 50
90.0
 11
-469.5333
 21
1000.0139
 31
0.0
100
AcDbText
 73
     3
  0
ENDBLK
  5
4C
100
AcDbEntity
  8
____1
100
AcDbBlockEnd
  0
BLOCK
  5
4D
100
AcDbEntity
  8
____1
100
AcDbBlockBegin
  2
*G4
 70
     1
 10
0.0
 20
0.0
 30
0.0
  3
*G4
  1

  0
TEXT
  5
4E
100
AcDbEntity
  8
____1
 62
     7
100
AcDbText
 10
-441.3118
 20
926.3334
 30
0.0
 40
28.2215
  1
65
 50
90.0
 11
-469.5333
 21
926.3334
 31
0.0
100
AcDbText
 73
     3
  0
ENDBLK
  5
4F
100
AcDbEntity
  8
____1
100
AcDbBlockEnd
  0
BLOCK
  5
50
100
AcDbEntity
  8
____1
100
AcDbBlockBegin
  2
*G5
 70
     1
 10
0.0
 20
0.0
 30
0.0
  3
*G5
  1

  0
TEXT
  5
51
100
AcDbEntity
  8
____1
 62
     7
100
AcDbText
 10
-441.3118
 20
630.0139
 30
0.0
 40
28.2215
  1
510
 50
90.0
 11
-469.5333
 21
630.0139
 31
0.0
100
AcDbText
 73
     3
  0
ENDBLK
  5
52
100
AcDbEntity
  8
____1
100
AcDbBlockEnd
  0
BLOCK
  5
53
100
AcDbEntity
  8
____1
100
AcDbBlockBegin
  2
*G6
 70
     1
 10
0.0
 20
0.0
 30
0.0
  3
*G6
  1

  0
TEXT
  5
54
100
AcDbEntity
  8
____1
 62
     7
100
AcDbText
 10
-441.3118
 20
346.3334
 30
0.0
 40
28.2215
  1
75
 50
90.0
 11
-469.5333
 21
346.3334
 31
0.0
100
AcDbText
 73
     3
  0
ENDBLK
  5
55
100
AcDbEntity
  8
____1
100
AcDbBlockEnd
  0
BLOCK
  5
56
100
AcDbEntity
  8
____1
100
AcDbBlockBegin
  2
*G7
 70
     1
 10
0.0
 20
0.0
 30
0.0
  3
*G7
  1

  0
TEXT
  5
57
100
AcDbEntity
  8
____1
 62
     7
100
AcDbText
 10
-441.3118
 20
232.6668
 30
0.0
 40
28.2215
  1
20
 50
90.0
 11
-469.5333
 21
232.6668
 31
0.0
100
AcDbText
 73
     3
  0
ENDBLK
  5
58
100
AcDbEntity
  8
____1
100
AcDbBlockEnd
  0
BLOCK
  5
59
100
AcDbEntity
  8
____1
100
AcDbBlockBegin
  2
*G8
 70
     1
 10
0.0
 20
0.0
 30
0.0
  3
*G8
  1

  0
TEXT
  5
5A
100
AcDbEntity
  8
____1
 62
     7
100
AcDbText
 10
-1366.1861
 20
225.1118
 30
0.0
 40
28.2215
  1
100
 11
-1366.1861
 21
253.3333
 31
0.0
100
AcDbText
 73
     3
  0
ENDBLK
  5
5B
100
AcDbEntity
  8
____1
100
AcDbBlockEnd
  0
BLOCK
  5
5C
100
AcDbEntity
  8
____1
100
AcDbBlockBegin
  2
*G9
 70
     1
 10
0.0
 20
0.0
 30
0.0
  3
*G9
  1

  0
TEXT
  5
5D
100
AcDbEntity
  8
____1
 62
     7
100
AcDbText
 10
-1277.3666
 20
225.1118
 30
0.0
 40
28.2215
  1
60
 11
-1277.3666
 21
253.3333
 31
0.0
100
AcDbText
 73
     3
  0
ENDBLK
  5
5E
100
AcDbEntity
  8
____1
100
AcDbBlockEnd
  0
BLOCK
  5
5F
100
AcDbEntity
  8
____1
100
AcDbBlockBegin
  2
*G10
 70
     1
 10
0.0
 20
0.0
 30
0.0
  3
*G10
  1

  0
TEXT
  5
60
100
AcDbEntity
  8
____1
 62
     7
100
AcDbText
 10
-996.1861
 20
225.1118
 30
0.0
 40
28.2215
  1
520
 11
-996.1861
 21
253.3333
 31
0.0
100
AcDbText
 73
     3
  0
ENDBLK
  5
61
100
AcDbEntity
  8
____1
100
AcDbBlockEnd
  0
BLOCK
  5
62
100
AcDbEntity
  8
____1
100
AcDbBlockBegin
  2
*G11
 70
     1
 10
0.0
 20
0.0
 30
0.0
  3
*G11
  1

  0
TEXT
  5
63
100
AcDbEntity
  8
____1
 62
     7
100
AcDbText
 10
-646.1861
 20
225.1118
 30
0.0
 40
28.2215
  1
180
 11
-646.1861
 21
253.3333
 31
0.0
100
AcDbText
 73
     3
  0
ENDBLK
  5
64
100
AcDbEntity
  8
____1
100
AcDbBlockEnd
  0
BLOCK
  5
65
100
AcDbEntity
  8
____1
100
AcDbBlockBegin
  2
*G12
 70
     1
 10
0.0
 20
0.0
 30
0.0
  3
*G12
  1

  0
TEXT
  5
66
100
AcDbEntity
  8
____1
 62
     7
100
AcDbText
 10
-1208.6983
 20
806.1118
 30
0.0
 40
28.2215
  1
355
 11
-1208.6983
 21
834.3333
 31
0.0
100
AcDbText
 73
     3
  0
ENDBLK
  5
67
100
AcDbEntity
  8
____1
100
AcDbBlockEnd
  0
BLOCK
  5
68
100
AcDbEntity
  8
____1
100
AcDbBlockBegin
  2
*G13
 70
     1
 10
0.0
 20
0.0
 30
0.0
  3
*G13
  1

  0
TEXT
  5
69
100
AcDbEntity
  8
____1
 62
     7
100
AcDbText
 10
-441.3118
 20
-224.9861
 30
0.0
 40
28.2215
  1
150
 50
90.0
 11
-469.5333
 21
-224.9861
 31
0.0
100
AcDbText
 73
     3
  0
ENDBLK
  5
6A
100
AcDbEntity
  8
____1
100
AcDbBlockEnd
  0
BLOCK
  5
6B
100
AcDbEntity
  8
____1
100
AcDbBlockBegin
  2
*G14
 70
     1
 10
0.0
 20
0.0
 30
0.0
  3
*G14
  1

  0
TEXT
  5
6C
100
AcDbEntity
  8
____1
 62
     7
100
AcDbText
 10
-441.3118
 20
-301.1666
 30
0.0
 40
28.2215
  1
20
 50
90.0
 11
-469.5333
 21
-301.1666
 31
0.0
100
AcDbText
 73
     3
  0
ENDBLK
  5
6D
100
AcDbEntity
  8
____1
100
AcDbBlockEnd
  0
BLOCK
  5
6E
100
AcDbEntity
  8
____1
100
AcDbBlockBegin
  2
*G15
 70
     1
 10
0.0
 20
0.0
 30
0.0
  3
*G15
  1

  0
TEXT
  5
6F
100
AcDbEntity
  8
____1
 62
     7
100
AcDbText
 10
-441.3118
 20
-739.4544
 30
0.0
 40
28.2215
  1
800（テーブル面）
 50
90.0
 11
-469.5333
 21
-739.4544
 31
0.0
100
AcDbText
 73
     3
  0
ENDBLK
  5
70
100
AcDbEntity
  8
____1
100
AcDbBlockEnd
  0
BLOCK
  5
71
100
AcDbEntity
  8
____1
100
AcDbBlockBegin
  2
*G16
 70
     1
 10
0.0
 20
0.0
 30
0.0
  3
*G16
  1

  0
TEXT
  5
72
100
AcDbEntity
  8
____1
 62
     7
100
AcDbText
 10
-750.6444
 20
-420.8882
 30
0.0
 40
28.2215
  1
26（内寸）
 11
-750.6444
 21
-392.6667
 31
0.0
100
AcDbText
 73
     3
  0
ENDBLK
  5
73
100
AcDbEntity
  8
____1
100
AcDbBlockEnd
  0
BLOCK
  5
74
100
AcDbEntity
  8
____1
100
AcDbBlockBegin
  2
*G17
 70
     1
 10
0.0
 20
0.0
 30
0.0
  3
*G17
  1

  0
TEXT
  5
75
100
AcDbEntity
  8
____1
 62
     7
100
AcDbText
 10
513.4668
 20
229.1118
 30
0.0
 40
28.2215
  1
35
 11
513.4668
 21
257.3333
 31
0.0
100
AcDbText
 73
     3
  0
ENDBLK
  5
76
100
AcDbEntity
  8
____1
100
AcDbBlockEnd
  0
BLOCK
  5
77
100
AcDbEntity
  8
____1
100
AcDbBlockBegin
  2
*G18
 70
     1
 10
0.0
 20
0.0
 30
0.0
  3
*G18
  1

  0
TEXT
  5
78
100
AcDbEntity
  8
____1
 62
     7
100
AcDbText
 10
597.6334
 20
149.1118
 30
0.0
 40
28.2215
  1
70
 11
597.6334
 21
177.3333
 31
0.0
100
AcDbText
 73
     3
  0
ENDBLK
  5
79
100
AcDbEntity
  8
____1
100
AcDbBlockEnd
  0
BLOCK
  5
7A
100
AcDbEntity
  8
____1
100
AcDbBlockBegin
  2
*G19
 70
     1
 10
0.0
 20
0.0
 30
0.0
  3
*G19
  1

  0
TEXT
  5
7B
100
AcDbEntity
  8
____1
 62
     7
100
AcDbText
 10
675.1334
 20
149.1118
 30
0.0
 40
28.2215
  1
85
 11
675.1334
 21
177.3333
 31
0.0
100
AcDbText
 73
     3
  0
ENDBLK
  5
7C
100
AcDbEntity
  8
____1
100
AcDbBlockEnd
  0
BLOCK
  5
7D
100
AcDbEntity
  8
____1
100
AcDbBlockBegin
  2
*G20
 70
     1
 10
0.0
 20
0.0
 30
0.0
  3
*G20
  1

  0
TEXT
  5
7E
100
AcDbEntity
  8
____1
 62
     7
100
AcDbText
 10
868.8139
 20
69.1118
 30
0.0
 40
28.2215
  1
970
 11
868.8139
 21
97.3333
 31
0.0
100
AcDbText
 73
     3
  0
ENDBLK
  5
7F
100
AcDbEntity
  8
____1
100
AcDbBlockEnd
  0
BLOCK
  5
80
100
AcDbEntity
  8
____1
100
AcDbBlockBegin
  2
*G21
 70
     1
 10
0.0
 20
0.0
 30
0.0
  3
*G21
  1

  0
TEXT
  5
81
100
AcDbEntity
  8
____1
 62
     7
100
AcDbText
 10
480.6882
 20
630.0139
 30
0.0
 40
28.2215
  1
300
 50
90.0
 11
452.4667
 21
630.0139
 31
0.0
100
AcDbText
 73
     3
  0
ENDBLK
  5
82
100
AcDbEntity
  8
____1
100
AcDbBlockEnd
  0
BLOCK
  5
83
100
AcDbEntity
  8
____1
100
AcDbBlockBegin
  2
*G22
 70
     1
 10
0.0
 20
0.0
 30
0.0
  3
*G22
  1

  0
TEXT
  5
84
100
AcDbEntity
  8
____1
 62
     7
100
AcDbText
 10
506.4668
 20
865.2784
 30
0.0
 40
28.2215
  1
10
 11
506.4668
 21
893.4999
 31
0.0
100
AcDbText
 73
     3
  0
ENDBLK
  5
85
100
AcDbEntity
  8
____1
100
AcDbBlockEnd
  0
BLOCK
  5
86
100
AcDbEntity
  8
____1
100
AcDbBlockBegin
  2
*G23
 70
     1
 10
0.0
 20
0.0
 30
0.0
  3
*G23
  1

  0
TEXT
  5
87
100
AcDbEntity
  8
____1
 62
     7
100
AcDbText
 10
507.4668
 20
921.1118
 30
0.0
 40
28.2215
  1
20
 11
507.4668
 21
949.3333
 31
0.0
100
AcDbText
 73
     3
  0
ENDBLK
  5
88
100
AcDbEntity
  8
____1
100
AcDbBlockEnd
  0
BLOCK
  5
89
100
AcDbEntity
  8
____1
100
AcDbBlockBegin
  2
*G24
 70
     1
 10
0.0
 20
0.0
 30
0.0
  3
*G24
  1

  0
TEXT
  5
8A
100
AcDbEntity
  8
____1
 62
     7
100
AcDbText
 10
-1501.3118
 20
840.0139
 30
0.0
 40
28.2215
  1
420
 50
90.0
 11
-1529.5333
 21
840.0139
 31
0.0
100
AcDbText
 73
     3
  0
ENDBLK
  5
8B
100
AcDbEntity
  8
____1
100
AcDbBlockEnd
  0
ENDSEC
  0
SECTION
  2
ENTITIES
  0
POLYLINE
  5
8C
100
AcDbEntity
  8
____
  6
CONTINUOUS
 62
     7
100
AcDb2dPolyline
 66
     1
 10
0.0
 20
0.0
 30
0.0
 70
     1
 75
     5
  0
VERTEX
  5
8D
100
AcDbEntity
  8
____
  6
CONTINUOUS
 62
     7
100
AcDbVertex
100
AcDb2dVertex
 10
-446.2
 20
-332.75
 30
0.0
  0
VERTEX
  5
8E
100
AcDbEntity
  8
____
  6
CONTINUOUS
 62
     7
100
AcDbVertex
100
AcDb2dVertex
 10
-553.2
 20
-332.75
 30
0.0
  0
VERTEX
  5
8F
100
AcDbEntity
  8
____
  6
CONTINUOUS
 62
     7
100
AcDbVertex
100
AcDb2dVertex
 10
-553.2
 20
-342.75
 30
0.0
  0
VERTEX
  5
90
100
AcDbEntity
  8
____
  6
CONTINUOUS
 62
     7
100
AcDbVertex
100
AcDb2dVertex
 10
-446.2
 20
-342.75
 30
0.0
  0
SEQEND
  5
91
100
AcDbEntity
  8
____
  6
CONTINUOUS
  0
LINE
  5
92
100
AcDbEntity
  8
____
  6
CONTINUOUS
 62
     7
100
AcDbLine
 10
717.4105
 20
638.1862
 30
0.0
 11
717.2237
 21
637.7279
 31
0.0
  0
LINE
  5
93
100
AcDbEntity
  8
____
  6
CONTINUOUS
 62
     7
100
AcDbLine
 10
717.5796
 20
638.6487
 30
0.0
 11
717.4105
 21
638.1862
 31
0.0
  0
LINE
  5
94
100
AcDbEntity
  8
____
  6
CONTINUOUS
 62
     7
100
AcDbLine
 10
717.7307
 20
639.1154
 30
0.0
 11
717.5796
 21
638.6487
 31
0.0
  0
LINE
  5
95
100
AcDbEntity
  8
____
  6
CONTINUOUS
 62
     7
100
AcDbLine
 10
717.8642
 20
639.5861
 30
0.0
 11
717.7307
 21
639.1154
 31
0.0
  0
LINE
  5
96
100
AcDbEntity
  8
____
  6
CONTINUOUS
 62
     7
100
AcDbLine
 10
717.9799
 20
640.0612
 30
0.0
 11
717.8642
 21
639.5861
 31
0.0
  0
LINE
  5
97
100
AcDbEntity
  8
____
  6
CONTINUOUS
 62
     7
100
AcDbLine
 10
718.0778
 20
640.5405
 30
0.0
 11
717.9799
 21
640.0612
 31
0.0
  0
LINE
  5
98
100
AcDbEntity
  8
____
  6
CONTINUOUS
 62
     7
100
AcDbLine
 10
718.1577
 20
641.024
 30
0.0
 11
718.0778
 21
640.5405
 31
0.0
  0
LINE
  5
99
100
AcDbEntity
  8
____
  6
CONTINUOUS
 62
     7
100
AcDbLine
 10
718.22
 20
641.5117
 30
0.0
 11
718.1577
 21
641.024
 31
0.0
  0
LINE
  5
9A
100
AcDbEntity
  8
____
  6
CONTINUOUS
 62
     7
100
AcDbLine
 10
718.2645
 20
642.0036
 30
0.0
 11
718.22
 21
641.5117
 31
0.0
  0
LINE
  5
9B
100
AcDbEntity
  8
____
  6
CONTINUOUS
 62
     7
100
AcDbLine
 10
718.2912
 20
642.4997
 30
0.0
 11
718.2645
 21
642.0036
 31
0.0
  0
LINE
  5
9C
100
AcDbEntity
  8
____
  6
CONTINUOUS
 62
     7
100
AcDbLine
 10
718.3
 20
643.0
 30
0.0
 11
718.2912
 21
642.4997
 31
0.0
  0
LINE
  5
9D
100
AcDbEntity
  8
____
  6
CONTINUOUS
 62
     7
100
AcDbLine
 10
718.2912
 20
643.5002
 30
0.0
 11
718.3
 21
643.0
 31
0.0
  0
LINE
  5
9E
100
AcDbEntity
  8
____
  6
CONTINUOUS
 62
     7
100
AcDbLine
 10
718.2645
 20
643.9963
 30
0.0
 11
718.2912
 21
643.5002
 31
0.0
  0
LINE
  5
9F
100
AcDbEntity
  8
____
  6
CONTINUOUS
 62
     7
100
AcDbLine
 10
718.22
 20
644.4882
 30
0.0
 11
718.2645
 21
643.9963
 31
0.0
  0
LINE
  5
A0
100
AcDbEntity
  8
____
  6
CONTINUOUS
 62
     7
100
AcDbLine
 10
718.1577
 20
644.9759
 30
0.0
 11
718.22
 21
644.4882
 31
0.0
  0
LINE
  5
A1
100
AcDbEntity
  8
____
  6
CONTINUOUS
 62
     7
100
AcDbLine
 10
718.0778
 20
645.4593
 30
0.0
 11
718.1577
 21
644.9759
 31
0.0
  0
LINE
  5
A2
100
AcDbEntity
  8
____
  6
CONTINUOUS
 62
     7
100
AcDbLine
 10
717.9799
 20
645.9386
 30
0.0
 11
718.0778
 21
645.4593
 31
0.0
  0
LINE
  5
A3
100
AcDbEntity
  8
____
  6
CONTINUOUS
 62
     7
100
AcDbLine
 10
717.8642
 20
646.4137
 30
0.0
 11
717.9799
 21
645.9386
 31
0.0
  0
LINE
  5
A4
100
AcDbEntity
  8
____
  6
CONTINUOUS
 62
     7
100
AcDbLine
 10
717.7307
 20
646.8846
 30
0.0
 11
717.8642
 21
646.4137
 31
0.0
  0
LINE
  5
A5
100
AcDbEntity
  8
____
  6
CONTINUOUS
 62
     7
100
AcDbLine
 10
717.5796
 20
647.3511
 30
0.0
 11
717.7307
 21
646.8846
 31
0.0
  0
LINE
  5
A6
100
AcDbEntity
  8
____
  6
CONTINUOUS
 62
     7
100
AcDbLine
 10
717.4105
 20
647.8136
 30
0.0
 11
717.5796
 21
647.3511
 31
0.0
  0
LINE
  5
A7
100
AcDbEntity
  8
____
  6
CONTINUOUS
 62
     7
100
AcDbLine
 10
717.2237
 20
648.2718
 30
0.0
 11
717.4105
 21
647.8136
 31
0.0
  0
LINE
  5
A8
100
AcDbEntity
  8
____
  6
CONTINUOUS
 62
     7
100
AcDbLine
 10
717.019
 20
648.7259
 30
0.0
 11
717.2237
 21
648.2718
 31
0.0
  0
LINE
  5
A9
100
AcDbEntity
  8
____
  6
CONTINUOUS
 62
     7
100
AcDbLine
 10
716.7967
 20
649.1756
 30
0.0
 11
717.019
 21
648.7259
 31
0.0
  0
LINE
  5
AA
100
AcDbEntity
  8
____
  6
CONTINUOUS
 62
     7
100
AcDbLine
 10
716.5564
 20
649.6213
 30
0.0
 11
716.7967
 21
649.1756
 31
0.0
  0
LINE
  5
AB
100
AcDbEntity
  8
____
  6
CONTINUOUS
 62
     7
100
AcDbLine
 10
716.2984
 20
650.0627
 30
0.0
 11
716.5564
 21
649.6213
 31
0.0
  0
LINE
  5
AC
100
AcDbEntity
  8
____
  6
CONTINUOUS
 62
     7
100
AcDbLine
 10
716.0225
 20
650.5
 30
0.0
 11
716.2984
 21
650.0627
 31
0.0
  0
LINE
  5
AD
100
AcDbEntity
  8
____
  6
CONTINUOUS
 62
     7
100
AcDbLine
 10
715.7314
 20
650.9293
 30
0.0
 11
716.0225
 21
650.5
 31
0.0
  0
LINE
  5
AE
100
AcDbEntity
  8
____
  6
CONTINUOUS
 62
     7
100
AcDbLine
 10
715.4271
 20
651.3472
 30
0.0
 11
715.7314
 21
650.9293
 31
0.0
  0
LINE
  5
AF
100
AcDbEntity
  8
____
  6
CONTINUOUS
 62
     7
100
AcDbLine
 10
715.1098
 20
651.7535
 30
0.0
 11
715.4271
 21
651.3472
 31
0.0
  0
LINE
  5
B0
100
AcDbEntity
  8
____
  6
CONTINUOUS
 62
     7
100
AcDbLine
 10
714.7795
 20
652.1484
 30
0.0
 11
715.1098
 21
651.7535
 31
0.0
  0
LINE
  5
B1
100
AcDbEntity
  8
____
  6
CONTINUOUS
 62
     7
100
AcDbLine
 10
714.4362
 20
652.5317
 30
0.0
 11
714.7795
 21
652.1484
 31
0.0
  0
LINE
  5
B2
100
AcDbEntity
  8
____
  6
CONTINUOUS
 62
     7
100
AcDbLine
 10
714.0799
 20
652.9036
 30
0.0
 11
714.4362
 21
652.5317
 31
0.0
  0
LINE
  5
B3
100
AcDbEntity
  8
____
  6
CONTINUOUS
 62
     7
100
AcDbLine
 10
713.7106
 20
653.264
 30
0.0
 11
714.0799
 21
652.9036
 31
0.0
  0
LINE
  5
B4
100
AcDbEntity
  8
____
  6
CONTINUOUS
 62
     7
100
AcDbLine
 10
713.3281
 20
653.613
 30
0.0
 11
713.7106
 21
653.264
 31
0.0
  0
LINE
  5
B5
100
AcDbEntity
  8
____
  6
CONTINUOUS
 62
     7
100
AcDbLine
 10
712.9328
 20
653.9503
 30
0.0
 11
713.3281
 21
653.613
 31
0.0
  0
LINE
  5
B6
100
AcDbEntity
  8
____
  6
CONTINUOUS
 62
     7
100
AcDbLine
 10
712.5243
 20
654.2762
 30
0.0
 11
712.9328
 21
653.9503
 31
0.0
  0
LINE
  5
B7
100
AcDbEntity
  8
____
  6
CONTINUOUS
 62
     7
100
AcDbLine
 10
712.1028
 20
654.5906
 30
0.0
 11
712.5243
 21
654.2762
 31
0.0
  0
LINE
  5
B8
100
AcDbEntity
  8
____
  6
CONTINUOUS
 62
     7
100
AcDbLine
 10
711.6683
 20
654.8936
 30
0.0
 11
712.1028
 21
654.5906
 31
0.0
  0
LINE
  5
B9
100
AcDbEntity
  8
____
  6
CONTINUOUS
 62
     7
100
AcDbLine
 10
711.2208
 20
655.185
 30
0.0
 11
711.6683
 21
654.8936
 31
0.0
  0
LINE
  5
BA
100
AcDbEntity
  8
____
  6
CONTINUOUS
 62
     7
100
AcDbLine
 10
710.7603
 20
655.465
 30
0.0
 11
711.2208
 21
655.185
 31
0.0
  0
LINE
  5
BB
100
AcDbEntity
  8
____
  6
CONTINUOUS
 62
     7
100
AcDbLine
 10
710.2867
 20
655.7334
 30
0.0
 11
710.7603
 21
655.465
 31
0.0
  0
LINE
  5
BC
100
AcDbEntity
  8
____
  6
CONTINUOUS
 62
     7
100
AcDbLine
 10
709.8
 20
655.9904
 30
0.0
 11
710.2867
 21
655.7334
 31
0.0
  0
LINE
  5
BD
100
AcDbEntity
  8
____
  6
CONTINUOUS
 62
     7
100
AcDbLine
 10
709.3046
 20
656.2337
 30
0.0
 11
709.8
 21
655.9904
 31
0.0
  0
LINE
  5
BE
100
AcDbEntity
  8
____
  6
CONTINUOUS
 62
     7
100
AcDbLine
 10
708.8043
 20
656.4614
 30
0.0
 11
709.3046
 21
656.2337
 31
0.0
  0
LINE
  5
BF
100
AcDbEntity
  8
____
  6
CONTINUOUS
 62
     7
100
AcDbLine
 10
708.2993
 20
656.6733
 30
0.0
 11
708.8043
 21
656.4614
 31
0.0
  0
LINE
  5
C0
100
AcDbEntity
  8
____
  6
CONTINUOUS
 62
     7
100
AcDbLine
 10
707.7895
 20
656.8696
 30
0.0
 11
708.2993
 21
656.6733
 31
0.0
  0
LINE
  5
C1
100
AcDbEntity
  8
____
  6
CONTINUOUS
 62
     7
100
AcDbLine
 10
707.275
 20
657.0501
 30
0.0
 11
707.7895
 21
656.8696
 31
0.0
  0
LINE
  5
C2
100
AcDbEntity
  8
____
  6
CONTINUOUS
 62
     7
100
AcDbLine
 10
706.7556
 20
657.215
 30
0.0
 11
707.275
 21
657.0501
 31
0.0
  0
LINE
  5
C3
100
AcDbEntity
  8
____
  6
CONTINUOUS
 62
     7
100
AcDbLine
 10
706.2316
 20
657.3641
 30
0.0
 11
706.7556
 21
657.215
 31
0.0
  0
LINE
  5
C4
100
AcDbEntity
  8
____
  6
CONTINUOUS
 62
     7
100
AcDbLine
 10
705.7026
 20
657.4976
 30
0.0
 11
706.2316
 21
657.3641
 31
0.0
  0
LINE
  5
C5
100
AcDbEntity
  8
____
  6
CONTINUOUS
 62
     7
100
AcDbLine
 10
705.169
 20
657.6153
 30
0.0
 11
705.7026
 21
657.4976
 31
0.0
  0
LINE
  5
C6
100
AcDbEntity
  8
____
  6
CONTINUOUS
 62
     7
100
AcDbLine
 10
704.6306
 20
657.7174
 30
0.0
 11
705.169
 21
657.6153
 31
0.0
  0
LINE
  5
C7
100
AcDbEntity
  8
____
  6
CONTINUOUS
 62
     7
100
AcDbLine
 10
704.0875
 20
657.8037
 30
0.0
 11
704.6306
 21
657.7174
 31
0.0
  0
LINE
  5
C8
100
AcDbEntity
  8
____
  6
CONTINUOUS
 62
     7
100
AcDbLine
 10
703.5395
 20
657.8744
 30
0.0
 11
704.0875
 21
657.8037
 31
0.0
  0
LINE
  5
C9
100
AcDbEntity
  8
____
  6
CONTINUOUS
 62
     7
100
AcDbLine
 10
702.9869
 20
657.9293
 30
0.0
 11
703.5395
 21
657.8744
 31
0.0
  0
LINE
  5
CA
100
AcDbEntity
  8
____
  6
CONTINUOUS
 62
     7
100
AcDbLine
 10
702.4293
 20
657.9686
 30
0.0
 11
702.9869
 21
657.9293
 31
0.0
  0
LINE
  5
CB
100
AcDbEntity
  8
____
  6
CONTINUOUS
 62
     7
100
AcDbLine
 10
701.8671
 20
657.9921
 30
0.0
 11
702.4293
 21
657.9686
 31
0.0
  0
LINE
  5
CC
100
AcDbEntity
  8
____
  6
CONTINUOUS
 62
     7
100
AcDbLine
 10
701.3
 20
658.0
 30
0.0
 11
701.8671
 21
657.9921
 31
0.0
  0
LINE
  5
CD
100
AcDbEntity
  8
____
  6
CONTINUOUS
 62
     7
100
AcDbLine
 10
700.7331
 20
657.9921
 30
0.0
 11
701.3
 21
658.0
 31
0.0
  0
LINE
  5
CE
100
AcDbEntity
  8
____
  6
CONTINUOUS
 62
     7
100
AcDbLine
 10
700.1709
 20
657.9686
 30
0.0
 11
700.7331
 21
657.9921
 31
0.0
  0
LINE
  5
CF
100
AcDbEntity
  8
____
  6
CONTINUOUS
 62
     7
100
AcDbLine
 10
699.6135
 20
657.9293
 30
0.0
 11
700.1709
 21
657.9686
 31
0.0
  0
LINE
  5
D0
100
AcDbEntity
  8
____
  6
CONTINUOUS
 62
     7
100
AcDbLine
 10
699.0607
 20
657.8744
 30
0.0
 11
699.6135
 21
657.9293
 31
0.0
  0
LINE
  5
D1
100
AcDbEntity
  8
____
  6
CONTINUOUS
 62
     7
100
AcDbLine
 10
698.5128
 20
657.8037
 30
0.0
 11
699.0607
 21
657.8744
 31
0.0
  0
LINE
  5
D2
100
AcDbEntity
  8
____
  6
CONTINUOUS
 62
     7
100
AcDbLine
 10
697.9696
 20
657.7174
 30
0.0
 11
698.5128
 21
657.8037
 31
0.0
  0
LINE
  5
D3
100
AcDbEntity
  8
____
  6
CONTINUOUS
 62
     7
100
AcDbLine
 10
697.4312
 20
657.6153
 30
0.0
 11
697.9696
 21
657.7174
 31
0.0
  0
LINE
  5
D4
100
AcDbEntity
  8
____
  6
CONTINUOUS
 62
     7
100
AcDbLine
 10
696.8975
 20
657.4976
 30
0.0
 11
697.4312
 21
657.6153
 31
0.0
  0
LINE
  5
D5
100
AcDbEntity
  8
____
  6
CONTINUOUS
 62
     7
100
AcDbLine
 10
696.3687
 20
657.3641
 30
0.0
 11
696.8975
 21
657.4976
 31
0.0
  0
LINE
  5
D6
100
AcDbEntity
  8
____
  6
CONTINUOUS
 62
     7
100
AcDbLine
 10
695.8446
 20
657.215
 30
0.0
 11
696.3687
 21
657.3641
 31
0.0
  0
LINE
  5
D7
100
AcDbEntity
  8
____
  6
CONTINUOUS
 62
     7
100
AcDbLine
 10
695.3253
 20
657.0501
 30
0.0
 11
695.8446
 21
657.215
 31
0.0
  0
LINE
  5
D8
100
AcDbEntity
  8
____
  6
CONTINUOUS
 62
     7
100
AcDbLine
 10
694.8107
 20
656.8696
 30
0.0
 11
695.3253
 21
657.0501
 31
0.0
  0
LINE
  5
D9
100
AcDbEntity
  8
____
  6
CONTINUOUS
 62
     7
100
AcDbLine
 10
694.3009
 20
656.6733
 30
0.0
 11
694.8107
 21
656.8696
 31
0.0
  0
LINE
  5
DA
100
AcDbEntity
  8
____
  6
CONTINUOUS
 62
     7
100
AcDbLine
 10
693.7959
 20
656.4614
 30
0.0
 11
694.3009
 21
656.6733
 31
0.0
  0
LINE
  5
DB
100
AcDbEntity
  8
____
  6
CONTINUOUS
 62
     7
100
AcDbLine
 10
693.2956
 20
656.2337
 30
0.0
 11
693.7959
 21
656.4614
 31
0.0
  0
LINE
  5
DC
100
AcDbEntity
  8
____
  6
CONTINUOUS
 62
     7
100
AcDbLine
 10
692.8
 20
655.9904
 30
0.0
 11
693.2956
 21
656.2337
 31
0.0
  0
LINE
  5
DD
100
AcDbEntity
  8
____
  6
CONTINUOUS
 62
     7
100
AcDbLine
 10
692.3135
 20
655.7334
 30
0.0
 11
692.8
 21
655.9904
 31
0.0
  0
LINE
  5
DE
100
AcDbEntity
  8
____
  6
CONTINUOUS
 62
     7
100
AcDbLine
 10
691.8399
 20
655.465
 30
0.0
 11
692.3135
 21
655.7334
 31
0.0
  0
LINE
  5
DF
100
AcDbEntity
  8
____
  6
CONTINUOUS
 62
     7
100
AcDbLine
 10
691.3794
 20
655.185
 30
0.0
 11
691.8399
 21
655.465
 31
0.0
  0
LINE
  5
E0
100
AcDbEntity
  8
____
  6
CONTINUOUS
 62
     7
100
AcDbLine
 10
690.9318
 20
654.8936
 30
0.0
 11
691.3794
 21
655.185
 31
0.0
  0
LINE
  5
E1
100
AcDbEntity
  8
____
  6
CONTINUOUS
 62
     7
100
AcDbLine
 10
690.4974
 20
654.5906
 30
0.0
 11
690.9318
 21
654.8936
 31
0.0
  0
LINE
  5
E2
100
AcDbEntity
  8
____
  6
CONTINUOUS
 62
     7
100
AcDbLine
 10
690.0759
 20
654.2762
 30
0.0
 11
690.4974
 21
654.5906
 31
0.0
  0
LINE
  5
E3
100
AcDbEntity
  8
____
  6
CONTINUOUS
 62
     7
100
AcDbLine
 10
689.6675
 20
653.9503
 30
0.0
 11
690.0759
 21
654.2762
 31
0.0
  0
LINE
  5
E4
100
AcDbEntity
  8
____
  6
CONTINUOUS
 62
     7
100
AcDbLine
 10
689.272
 20
653.613
 30
0.0
 11
689.6675
 21
653.9503
 31
0.0
  0
LINE
  5
E5
100
AcDbEntity
  8
____
  6
CONTINUOUS
 62
     7
100
AcDbLine
 10
688.8897
 20
653.264
 30
0.0
 11
689.272
 21
653.613
 31
0.0
  0
LINE
  5
E6
100
AcDbEntity
  8
____
  6
CONTINUOUS
 62
     7
100
AcDbLine
 10
688.5203
 20
652.9036
 30
0.0
 11
688.8897
 21
653.264
 31
0.0
  0
LINE
  5
E7
100
AcDbEntity
  8
____
  6
CONTINUOUS
 62
     7
100
AcDbLine
 10
688.164
 20
652.5317
 30
0.0
 11
688.5203
 21
652.9036
 31
0.0
  0
LINE
  5
E8
100
AcDbEntity
  8
____
  6
CONTINUOUS
 62
     7
100
AcDbLine
 10
687.8206
 20
652.1484
 30
0.0
 11
688.164
 21
652.5317
 31
0.0
  0
LINE
  5
E9
100
AcDbEntity
  8
____
  6
CONTINUOUS
 62
     7
100
AcDbLine
 10
687.4904
 20
651.7535
 30
0.0
 11
687.8206
 21
652.1484
 31
0.0
  0
LINE
  5
EA
100
AcDbEntity
  8
____
  6
CONTINUOUS
 62
     7
100
AcDbLine
 10
687.1731
 20
651.3472
 30
0.0
 11
687.4904
 21
651.7535
 31
0.0
  0
LINE
  5
EB
100
AcDbEntity
  8
____
  6
CONTINUOUS
 62
     7
100
AcDbLine
 10
686.8689
 20
650.9293
 30
0.0
 11
687.1731
 21
651.3472
 31
0.0
  0
LINE
  5
EC
100
AcDbEntity
  8
____
  6
CONTINUOUS
 62
     7
100
AcDbLine
 10
686.5776
 20
650.5
 30
0.0
 11
686.8689
 21
650.9293
 31
0.0
  0
LINE
  5
ED
100
AcDbEntity
  8
____
  6
CONTINUOUS
 62
     7
100
AcDbLine
 10
686.3019
 20
650.0627
 30
0.0
 11
686.5776
 21
650.5
 31
0.0
  0
LINE
  5
EE
100
AcDbEntity
  8
____
  6
CONTINUOUS
 62
     7
100
AcDbLine
 10
686.0438
 20
649.6213
 30
0.0
 11
686.3019
 21
650.0627
 31
0.0
  0
LINE
  5
EF
100
AcDbEntity
  8
____
  6
CONTINUOUS
 62
     7
100
AcDbLine
 10
685.8037
 20
649.1756
 30
0.0
 11
686.0438
 21
649.6213
 31
0.0
  0
LINE
  5
F0
100
AcDbEntity
  8
____
  6
CONTINUOUS
 62
     7
100
AcDbLine
 10
685.5812
 20
648.7259
 30
0.0
 11
685.8037
 21
649.1756
 31
0.0
  0
LINE
  5
F1
100
AcDbEntity
  8
____
  6
CONTINUOUS
 62
     7
100
AcDbLine
 10
685.3767
 20
648.2718
 30
0.0
 11
685.5812
 21
648.7259
 31
0.0
  0
LINE
  5
F2
100
AcDbEntity
  8
____
  6
CONTINUOUS
 62
     7
100
AcDbLine
 10
685.1898
 20
647.8136
 30
0.0
 11
685.3767
 21
648.2718
 31
0.0
  0
LINE
  5
F3
100
AcDbEntity
  8
____
  6
CONTINUOUS
 62
     7
100
AcDbLine
 10
685.0207
 20
647.3511
 30
0.0
 11
685.1898
 21
647.8136
 31
0.0
  0
LINE
  5
F4
100
AcDbEntity
  8
____
  6
CONTINUOUS
 62
     7
100
AcDbLine
 10
684.8694
 20
646.8846
 30
0.0
 11
685.0207
 21
647.3511
 31
0.0
  0
LINE
  5
F5
100
AcDbEntity
  8
____
  6
CONTINUOUS
 62
     7
100
AcDbLine
 10
684.7361
 20
646.4137
 30
0.0
 11
684.8694
 21
646.8846
 31
0.0
  0
LINE
  5
F6
100
AcDbEntity
  8
____
  6
CONTINUOUS
 62
     7
100
AcDbLine
 10
684.6204
 20
645.9386
 30
0.0
 11
684.7361
 21
646.4137
 31
0.0
  0
LINE
  5
F7
100
AcDbEntity
  8
____
  6
CONTINUOUS
 62
     7
100
AcDbLine
 10
684.5225
 20
645.4593
 30
0.0
 11
684.6204
 21
645.9386
 31
0.0
  0
LINE
  5
F8
100
AcDbEntity
  8
____
  6
CONTINUOUS
 62
     7
100
AcDbLine
 10
684.4424
 20
644.9759
 30
0.0
 11
684.5225
 21
645.4593
 31
0.0
  0
LINE
  5
F9
100
AcDbEntity
  8
____
  6
CONTINUOUS
 62
     7
100
AcDbLine
 10
684.3801
 20
644.4882
 30
0.0
 11
684.4424
 21
644.9759
 31
0.0
  0
LINE
  5
FA
100
AcDbEntity
  8
____
  6
CONTINUOUS
 62
     7
100
AcDbLine
 10
684.3356
 20
643.9963
 30
0.0
 11
684.3801
 21
644.4882
 31
0.0
  0
LINE
  5
FB
100
AcDbEntity
  8
____
  6
CONTINUOUS
 62
     7
100
AcDbLine
 10
684.3089
 20
643.5002
 30
0.0
 11
684.3356
 21
643.9963
 31
0.0
  0
LINE
  5
FC
100
AcDbEntity
  8
____
  6
CONTINUOUS
 62
     7
100
AcDbLine
 10
684.3
 20
643.0
 30
0.0
 11
684.3089
 21
643.5002
 31
0.0
  0
LINE
  5
FD
100
AcDbEntity
  8
____
  6
CONTINUOUS
 62
     7
100
AcDbLine
 10
684.3089
 20
642.4997
 30
0.0
 11
684.3
 21
643.0
 31
0.0
  0
LINE
  5
FE
100
AcDbEntity
  8
____
  6
CONTINUOUS
 62
     7
100
AcDbLine
 10
684.3356
 20
642.0036
 30
0.0
 11
684.3089
 21
642.4997
 31
0.0
  0
LINE
  5
FF
100
AcDbEntity
  8
____
  6
CONTINUOUS
 62
     7
100
AcDbLine
 10
684.3801
 20
641.5117
 30
0.0
 11
684.3356
 21
642.0036
 31
0.0
  0
LINE
  5
100
100
AcDbEntity
  8
____
  6
CONTINUOUS
 62
     7
100
AcDbLine
 10
684.4424
 20
641.024
 30
0.0
 11
684.3801
 21
641.5117
 31
0.0
  0
LINE
  5
101
100
AcDbEntity
  8
____
  6
CONTINUOUS
 62
     7
100
AcDbLine
 10
684.5225
 20
640.5405
 30
0.0
 11
684.4424
 21
641.024
 31
0.0
  0
LINE
  5
102
100
AcDbEntity
  8
____
  6
CONTINUOUS
 62
     7
100
AcDbLine
 10
684.3
 20
643.0
 30
0.0
 11
684.3
 21
651.5
 31
0.0
  0
ARC
  5
103
100
AcDbEntity
  8
____
  6
CONTINUOUS
 62
     7
100
AcDbCircle
 10
701.3
 20
648.5
 30
0.0
 40
17.2626
100
AcDbArc
 50
10.304728
 51
169.99202
  0
LINE
  5
104
100
AcDbEntity
  8
____
  6
CONTINUOUS
 62
     7
100
AcDbLine
 10
718.3
 20
643.0
 30
0.0
 11
718.3
 21
651.5
 31
0.0
  0
LINE
  5
105
100
AcDbEntity
  8
____
  6
CONTINUOUS
 62
     7
100
AcDbLine
 10
715.1828
 20
641.4192
 30
0.0
 11
715.1169
 21
641.0323
 31
0.0
  0
LINE
  5
106
100
AcDbEntity
  8
____
  6
CONTINUOUS
 62
     7
100
AcDbLine
 10
715.2341
 20
641.8093
 30
0.0
 11
715.1828
 21
641.4192
 31
0.0
  0
LINE
  5
107
100
AcDbEntity
  8
____
  6
CONTINUOUS
 62
     7
100
AcDbLine
 10
715.2707
 20
642.2028
 30
0.0
 11
715.2341
 21
641.8093
 31
0.0
  0
LINE
  5
108
100
AcDbEntity
  8
____
  6
CONTINUOUS
 62
     7
100
AcDbLine
 10
715.2927
 20
642.5997
 30
0.0
 11
715.2707
 21
642.2028
 31
0.0
  0
LINE
  5
109
100
AcDbEntity
  8
____
  6
CONTINUOUS
 62
     7
100
AcDbLine
 10
715.3
 20
643.0
 30
0.0
 11
715.2927
 21
642.5997
 31
0.0
  0
LINE
  5
10A
100
AcDbEntity
  8
____
  6
CONTINUOUS
 62
     7
100
AcDbLine
 10
715.2927
 20
643.4001
 30
0.0
 11
715.3
 21
643.0
 31
0.0
  0
LINE
  5
10B
100
AcDbEntity
  8
____
  6
CONTINUOUS
 62
     7
100
AcDbLine
 10
715.2707
 20
643.797
 30
0.0
 11
715.2927
 21
643.4001
 31
0.0
  0
LINE
  5
10C
100
AcDbEntity
  8
____
  6
CONTINUOUS
 62
     7
100
AcDbLine
 10
715.2341
 20
644.1905
 30
0.0
 11
715.2707
 21
643.797
 31
0.0
  0
LINE
  5
10D
100
AcDbEntity
  8
____
  6
CONTINUOUS
 62
     7
100
AcDbLine
 10
715.1828
 20
644.5807
 30
0.0
 11
715.2341
 21
644.1905
 31
0.0
  0
LINE
  5
10E
100
AcDbEntity
  8
____
  6
CONTINUOUS
 62
     7
100
AcDbLine
 10
715.1169
 20
644.9674
 30
0.0
 11
715.1828
 21
644.5807
 31
0.0
  0
LINE
  5
10F
100
AcDbEntity
  8
____
  6
CONTINUOUS
 62
     7
100
AcDbLine
 10
715.0363
 20
645.3509
 30
0.0
 11
715.1169
 21
644.9674
 31
0.0
  0
LINE
  5
110
100
AcDbEntity
  8
____
  6
CONTINUOUS
 62
     7
100
AcDbLine
 10
714.9411
 20
645.731
 30
0.0
 11
715.0363
 21
645.3509
 31
0.0
  0
LINE
  5
111
100
AcDbEntity
  8
____
  6
CONTINUOUS
 62
     7
100
AcDbLine
 10
714.8311
 20
646.1077
 30
0.0
 11
714.9411
 21
645.731
 31
0.0
  0
LINE
  5
112
100
AcDbEntity
  8
____
  6
CONTINUOUS
 62
     7
100
AcDbLine
 10
714.7066
 20
646.481
 30
0.0
 11
714.8311
 21
646.1077
 31
0.0
  0
LINE
  5
113
100
AcDbEntity
  8
____
  6
CONTINUOUS
 62
     7
100
AcDbLine
 10
714.5674
 20
646.8509
 30
0.0
 11
714.7066
 21
646.481
 31
0.0
  0
LINE
  5
114
100
AcDbEntity
  8
____
  6
CONTINUOUS
 62
     7
100
AcDbLine
 10
714.4136
 20
647.2174
 30
0.0
 11
714.5674
 21
646.8509
 31
0.0
  0
LINE
  5
115
100
AcDbEntity
  8
____
  6
CONTINUOUS
 62
     7
100
AcDbLine
 10
714.245
 20
647.5807
 30
0.0
 11
714.4136
 21
647.2174
 31
0.0
  0
LINE
  5
116
100
AcDbEntity
  8
____
  6
CONTINUOUS
 62
     7
100
AcDbLine
 10
714.0619
 20
647.9405
 30
0.0
 11
714.245
 21
647.5807
 31
0.0
  0
LINE
  5
117
100
AcDbEntity
  8
____
  6
CONTINUOUS
 62
     7
100
AcDbLine
 10
713.8641
 20
648.297
 30
0.0
 11
714.0619
 21
647.9405
 31
0.0
  0
LINE
  5
118
100
AcDbEntity
  8
____
  6
CONTINUOUS
 62
     7
100
AcDbLine
 10
713.6516
 20
648.6501
 30
0.0
 11
713.8641
 21
648.297
 31
0.0
  0
LINE
  5
119
100
AcDbEntity
  8
____
  6
CONTINUOUS
 62
     7
100
AcDbLine
 10
713.4244
 20
649.0
 30
0.0
 11
713.6516
 21
648.6501
 31
0.0
  0
LINE
  5
11A
100
AcDbEntity
  8
____
  6
CONTINUOUS
 62
     7
100
AcDbLine
 10
713.1847
 20
649.3434
 30
0.0
 11
713.4244
 21
649.0
 31
0.0
  0
LINE
  5
11B
100
AcDbEntity
  8
____
  6
CONTINUOUS
 62
     7
100
AcDbLine
 10
712.9341
 20
649.6777
 30
0.0
 11
713.1847
 21
649.3434
 31
0.0
  0
LINE
  5
11C
100
AcDbEntity
  8
____
  6
CONTINUOUS
 62
     7
100
AcDbLine
 10
712.6729
 20
650.0027
 30
0.0
 11
712.9341
 21
649.6777
 31
0.0
  0
LINE
  5
11D
100
AcDbEntity
  8
____
  6
CONTINUOUS
 62
     7
100
AcDbLine
 10
712.4008
 20
650.3187
 30
0.0
 11
712.6729
 21
650.0027
 31
0.0
  0
LINE
  5
11E
100
AcDbEntity
  8
____
  6
CONTINUOUS
 62
     7
100
AcDbLine
 10
712.1182
 20
650.6253
 30
0.0
 11
712.4008
 21
650.3187
 31
0.0
  0
LINE
  5
11F
100
AcDbEntity
  8
____
  6
CONTINUOUS
 62
     7
100
AcDbLine
 10
711.8247
 20
650.9229
 30
0.0
 11
712.1182
 21
650.6253
 31
0.0
  0
LINE
  5
120
100
AcDbEntity
  8
____
  6
CONTINUOUS
 62
     7
100
AcDbLine
 10
711.5205
 20
651.2111
 30
0.0
 11
711.8247
 21
650.9229
 31
0.0
  0
LINE
  5
121
100
AcDbEntity
  8
____
  6
CONTINUOUS
 62
     7
100
AcDbLine
 10
711.2055
 20
651.4903
 30
0.0
 11
711.5205
 21
651.2111
 31
0.0
  0
LINE
  5
122
100
AcDbEntity
  8
____
  6
CONTINUOUS
 62
     7
100
AcDbLine
 10
710.88
 20
651.7601
 30
0.0
 11
711.2055
 21
651.4903
 31
0.0
  0
LINE
  5
123
100
AcDbEntity
  8
____
  6
CONTINUOUS
 62
     7
100
AcDbLine
 10
710.5436
 20
652.0209
 30
0.0
 11
710.88
 21
651.7601
 31
0.0
  0
LINE
  5
124
100
AcDbEntity
  8
____
  6
CONTINUOUS
 62
     7
100
AcDbLine
 10
710.1965
 20
652.2724
 30
0.0
 11
710.5436
 21
652.0209
 31
0.0
  0
LINE
  5
125
100
AcDbEntity
  8
____
  6
CONTINUOUS
 62
     7
100
AcDbLine
 10
709.8386
 20
652.5148
 30
0.0
 11
710.1965
 21
652.2724
 31
0.0
  0
LINE
  5
126
100
AcDbEntity
  8
____
  6
CONTINUOUS
 62
     7
100
AcDbLine
 10
709.4701
 20
652.7479
 30
0.0
 11
709.8386
 21
652.5148
 31
0.0
  0
LINE
  5
127
100
AcDbEntity
  8
____
  6
CONTINUOUS
 62
     7
100
AcDbLine
 10
709.0908
 20
652.9719
 30
0.0
 11
709.4701
 21
652.7479
 31
0.0
  0
LINE
  5
128
100
AcDbEntity
  8
____
  6
CONTINUOUS
 62
     7
100
AcDbLine
 10
708.7008
 20
653.1867
 30
0.0
 11
709.0908
 21
652.9719
 31
0.0
  0
LINE
  5
129
100
AcDbEntity
  8
____
  6
CONTINUOUS
 62
     7
100
AcDbLine
 10
708.3
 20
653.3923
 30
0.0
 11
708.7008
 21
653.1867
 31
0.0
  0
LINE
  5
12A
100
AcDbEntity
  8
____
  6
CONTINUOUS
 62
     7
100
AcDbLine
 10
707.8921
 20
653.5869
 30
0.0
 11
708.3
 21
653.3923
 31
0.0
  0
LINE
  5
12B
100
AcDbEntity
  8
____
  6
CONTINUOUS
 62
     7
100
AcDbLine
 10
707.4801
 20
653.769
 30
0.0
 11
707.8921
 21
653.5869
 31
0.0
  0
LINE
  5
12C
100
AcDbEntity
  8
____
  6
CONTINUOUS
 62
     7
100
AcDbLine
 10
707.0642
 20
653.9385
 30
0.0
 11
707.4801
 21
653.769
 31
0.0
  0
LINE
  5
12D
100
AcDbEntity
  8
____
  6
CONTINUOUS
 62
     7
100
AcDbLine
 10
706.6443
 20
654.0956
 30
0.0
 11
707.0642
 21
653.9385
 31
0.0
  0
LINE
  5
12E
100
AcDbEntity
  8
____
  6
CONTINUOUS
 62
     7
100
AcDbLine
 10
706.2206
 20
654.24
 30
0.0
 11
706.6443
 21
654.0956
 31
0.0
  0
LINE
  5
12F
100
AcDbEntity
  8
____
  6
CONTINUOUS
 62
     7
100
AcDbLine
 10
705.7929
 20
654.3719
 30
0.0
 11
706.2206
 21
654.24
 31
0.0
  0
LINE
  5
130
100
AcDbEntity
  8
____
  6
CONTINUOUS
 62
     7
100
AcDbLine
 10
705.3613
 20
654.4912
 30
0.0
 11
705.7929
 21
654.3719
 31
0.0
  0
LINE
  5
131
100
AcDbEntity
  8
____
  6
CONTINUOUS
 62
     7
100
AcDbLine
 10
704.9257
 20
654.598
 30
0.0
 11
705.3613
 21
654.4912
 31
0.0
  0
LINE
  5
132
100
AcDbEntity
  8
____
  6
CONTINUOUS
 62
     7
100
AcDbLine
 10
704.4863
 20
654.6921
 30
0.0
 11
704.9257
 21
654.598
 31
0.0
  0
LINE
  5
133
100
AcDbEntity
  8
____
  6
CONTINUOUS
 62
     7
100
AcDbLine
 10
704.0429
 20
654.7738
 30
0.0
 11
704.4863
 21
654.6921
 31
0.0
  0
LINE
  5
134
100
AcDbEntity
  8
____
  6
CONTINUOUS
 62
     7
100
AcDbLine
 10
703.5956
 20
654.8429
 30
0.0
 11
704.0429
 21
654.7738
 31
0.0
  0
LINE
  5
135
100
AcDbEntity
  8
____
  6
CONTINUOUS
 62
     7
100
AcDbLine
 10
703.1443
 20
654.8995
 30
0.0
 11
703.5956
 21
654.8429
 31
0.0
  0
LINE
  5
136
100
AcDbEntity
  8
____
  6
CONTINUOUS
 62
     7
100
AcDbLine
 10
702.6892
 20
654.9434
 30
0.0
 11
703.1443
 21
654.8995
 31
0.0
  0
LINE
  5
137
100
AcDbEntity
  8
____
  6
CONTINUOUS
 62
     7
100
AcDbLine
 10
702.2301
 20
654.9748
 30
0.0
 11
702.6892
 21
654.9434
 31
0.0
  0
LINE
  5
138
100
AcDbEntity
  8
____
  6
CONTINUOUS
 62
     7
100
AcDbLine
 10
701.7671
 20
654.9937
 30
0.0
 11
702.2301
 21
654.9748
 31
0.0
  0
LINE
  5
139
100
AcDbEntity
  8
____
  6
CONTINUOUS
 62
     7
100
AcDbLine
 10
701.3
 20
655.0
 30
0.0
 11
701.7671
 21
654.9937
 31
0.0
  0
LINE
  5
13A
100
AcDbEntity
  8
____
  6
CONTINUOUS
 62
     7
100
AcDbLine
 10
700.8331
 20
654.9937
 30
0.0
 11
701.3
 21
655.0
 31
0.0
  0
LINE
  5
13B
100
AcDbEntity
  8
____
  6
CONTINUOUS
 62
     7
100
AcDbLine
 10
700.3701
 20
654.9748
 30
0.0
 11
700.8331
 21
654.9937
 31
0.0
  0
LINE
  5
13C
100
AcDbEntity
  8
____
  6
CONTINUOUS
 62
     7
100
AcDbLine
 10
699.911
 20
654.9434
 30
0.0
 11
700.3701
 21
654.9748
 31
0.0
  0
LINE
  5
13D
100
AcDbEntity
  8
____
  6
CONTINUOUS
 62
     7
100
AcDbLine
 10
699.4558
 20
654.8995
 30
0.0
 11
699.911
 21
654.9434
 31
0.0
  0
LINE
  5
13E
100
AcDbEntity
  8
____
  6
CONTINUOUS
 62
     7
100
AcDbLine
 10
699.0046
 20
654.8429
 30
0.0
 11
699.4558
 21
654.8995
 31
0.0
  0
LINE
  5
13F
100
AcDbEntity
  8
____
  6
CONTINUOUS
 62
     7
100
AcDbLine
 10
698.5573
 20
654.7738
 30
0.0
 11
699.0046
 21
654.8429
 31
0.0
  0
LINE
  5
140
100
AcDbEntity
  8
____
  6
CONTINUOUS
 62
     7
100
AcDbLine
 10
698.1139
 20
654.6921
 30
0.0
 11
698.5573
 21
654.7738
 31
0.0
  0
LINE
  5
141
100
AcDbEntity
  8
____
  6
CONTINUOUS
 62
     7
100
AcDbLine
 10
697.6744
 20
654.598
 30
0.0
 11
698.1139
 21
654.6921
 31
0.0
  0
LINE
  5
142
100
AcDbEntity
  8
____
  6
CONTINUOUS
 62
     7
100
AcDbLine
 10
697.2389
 20
654.4912
 30
0.0
 11
697.6744
 21
654.598
 31
0.0
  0
LINE
  5
143
100
AcDbEntity
  8
____
  6
CONTINUOUS
 62
     7
100
AcDbLine
 10
696.8073
 20
654.3719
 30
0.0
 11
697.2389
 21
654.4912
 31
0.0
  0
LINE
  5
144
100
AcDbEntity
  8
____
  6
CONTINUOUS
 62
     7
100
AcDbLine
 10
696.3796
 20
654.24
 30
0.0
 11
696.8073
 21
654.3719
 31
0.0
  0
LINE
  5
145
100
AcDbEntity
  8
____
  6
CONTINUOUS
 62
     7
100
AcDbLine
 10
695.9558
 20
654.0956
 30
0.0
 11
696.3796
 21
654.24
 31
0.0
  0
LINE
  5
146
100
AcDbEntity
  8
____
  6
CONTINUOUS
 62
     7
100
AcDbLine
 10
695.536
 20
653.9385
 30
0.0
 11
695.9558
 21
654.0956
 31
0.0
  0
LINE
  5
147
100
AcDbEntity
  8
____
  6
CONTINUOUS
 62
     7
100
AcDbLine
 10
695.1201
 20
653.769
 30
0.0
 11
695.536
 21
653.9385
 31
0.0
  0
LINE
  5
148
100
AcDbEntity
  8
____
  6
CONTINUOUS
 62
     7
100
AcDbLine
 10
694.7081
 20
653.5869
 30
0.0
 11
695.1201
 21
653.769
 31
0.0
  0
LINE
  5
149
100
AcDbEntity
  8
____
  6
CONTINUOUS
 62
     7
100
AcDbLine
 10
694.3
 20
653.3923
 30
0.0
 11
694.7081
 21
653.5869
 31
0.0
  0
LINE
  5
14A
100
AcDbEntity
  8
____
  6
CONTINUOUS
 62
     7
100
AcDbLine
 10
693.8994
 20
653.1867
 30
0.0
 11
694.3
 21
653.3923
 31
0.0
  0
LINE
  5
14B
100
AcDbEntity
  8
____
  6
CONTINUOUS
 62
     7
100
AcDbLine
 10
693.5094
 20
652.9719
 30
0.0
 11
693.8994
 21
653.1867
 31
0.0
  0
LINE
  5
14C
100
AcDbEntity
  8
____
  6
CONTINUOUS
 62
     7
100
AcDbLine
 10
693.1302
 20
652.7479
 30
0.0
 11
693.5094
 21
652.9719
 31
0.0
  0
LINE
  5
14D
100
AcDbEntity
  8
____
  6
CONTINUOUS
 62
     7
100
AcDbLine
 10
692.7616
 20
652.5148
 30
0.0
 11
693.1302
 21
652.7479
 31
0.0
  0
LINE
  5
14E
100
AcDbEntity
  8
____
  6
CONTINUOUS
 62
     7
100
AcDbLine
 10
692.4038
 20
652.2724
 30
0.0
 11
692.7616
 21
652.5148
 31
0.0
  0
LINE
  5
14F
100
AcDbEntity
  8
____
  6
CONTINUOUS
 62
     7
100
AcDbLine
 10
692.0567
 20
652.0209
 30
0.0
 11
692.4038
 21
652.2724
 31
0.0
  0
LINE
  5
150
100
AcDbEntity
  8
____
  6
CONTINUOUS
 62
     7
100
AcDbLine
 10
691.7203
 20
651.7601
 30
0.0
 11
692.0567
 21
652.0209
 31
0.0
  0
LINE
  5
151
100
AcDbEntity
  8
____
  6
CONTINUOUS
 62
     7
100
AcDbLine
 10
691.3946
 20
651.4903
 30
0.0
 11
691.7203
 21
651.7601
 31
0.0
  0
LINE
  5
152
100
AcDbEntity
  8
____
  6
CONTINUOUS
 62
     7
100
AcDbLine
 10
691.0798
 20
651.2111
 30
0.0
 11
691.3946
 21
651.4903
 31
0.0
  0
LINE
  5
153
100
AcDbEntity
  8
____
  6
CONTINUOUS
 62
     7
100
AcDbLine
 10
690.7756
 20
650.9229
 30
0.0
 11
691.0798
 21
651.2111
 31
0.0
  0
LINE
  5
154
100
AcDbEntity
  8
____
  6
CONTINUOUS
 62
     7
100
AcDbLine
 10
690.4822
 20
650.6253
 30
0.0
 11
690.7756
 21
650.9229
 31
0.0
  0
LINE
  5
155
100
AcDbEntity
  8
____
  6
CONTINUOUS
 62
     7
100
AcDbLine
 10
690.1994
 20
650.3187
 30
0.0
 11
690.4822
 21
650.6253
 31
0.0
  0
LINE
  5
156
100
AcDbEntity
  8
____
  6
CONTINUOUS
 62
     7
100
AcDbLine
 10
689.9274
 20
650.0027
 30
0.0
 11
690.1994
 21
650.3187
 31
0.0
  0
LINE
  5
157
100
AcDbEntity
  8
____
  6
CONTINUOUS
 62
     7
100
AcDbLine
 10
689.6661
 20
649.6777
 30
0.0
 11
689.9274
 21
650.0027
 31
0.0
  0
LINE
  5
158
100
AcDbEntity
  8
____
  6
CONTINUOUS
 62
     7
100
AcDbLine
 10
689.4156
 20
649.3434
 30
0.0
 11
689.6661
 21
649.6777
 31
0.0
  0
LINE
  5
159
100
AcDbEntity
  8
____
  6
CONTINUOUS
 62
     7
100
AcDbLine
 10
689.1757
 20
649.0
 30
0.0
 11
689.4156
 21
649.3434
 31
0.0
  0
LINE
  5
15A
100
AcDbEntity
  8
____
  6
CONTINUOUS
 62
     7
100
AcDbLine
 10
688.9487
 20
648.6501
 30
0.0
 11
689.1757
 21
649.0
 31
0.0
  0
LINE
  5
15B
100
AcDbEntity
  8
____
  6
CONTINUOUS
 62
     7
100
AcDbLine
 10
688.7362
 20
648.297
 30
0.0
 11
688.9487
 21
648.6501
 31
0.0
  0
LINE
  5
15C
100
AcDbEntity
  8
____
  6
CONTINUOUS
 62
     7
100
AcDbLine
 10
688.5384
 20
647.9405
 30
0.0
 11
688.7362
 21
648.297
 31
0.0
  0
LINE
  5
15D
100
AcDbEntity
  8
____
  6
CONTINUOUS
 62
     7
100
AcDbLine
 10
688.3552
 20
647.5807
 30
0.0
 11
688.5384
 21
647.9405
 31
0.0
  0
LINE
  5
15E
100
AcDbEntity
  8
____
  6
CONTINUOUS
 62
     7
100
AcDbLine
 10
688.1868
 20
647.2174
 30
0.0
 11
688.3552
 21
647.5807
 31
0.0
  0
LINE
  5
15F
100
AcDbEntity
  8
____
  6
CONTINUOUS
 62
     7
100
AcDbLine
 10
688.0329
 20
646.8509
 30
0.0
 11
688.1868
 21
647.2174
 31
0.0
  0
LINE
  5
160
100
AcDbEntity
  8
____
  6
CONTINUOUS
 62
     7
100
AcDbLine
 10
687.8937
 20
646.481
 30
0.0
 11
688.0329
 21
646.8509
 31
0.0
  0
LINE
  5
161
100
AcDbEntity
  8
____
  6
CONTINUOUS
 62
     7
100
AcDbLine
 10
687.769
 20
646.1077
 30
0.0
 11
687.8937
 21
646.481
 31
0.0
  0
LINE
  5
162
100
AcDbEntity
  8
____
  6
CONTINUOUS
 62
     7
100
AcDbLine
 10
687.6592
 20
645.731
 30
0.0
 11
687.769
 21
646.1077
 31
0.0
  0
LINE
  5
163
100
AcDbEntity
  8
____
  6
CONTINUOUS
 62
     7
100
AcDbLine
 10
687.5639
 20
645.3509
 30
0.0
 11
687.6592
 21
645.731
 31
0.0
  0
LINE
  5
164
100
AcDbEntity
  8
____
  6
CONTINUOUS
 62
     7
100
AcDbLine
 10
687.4833
 20
644.9674
 30
0.0
 11
687.5639
 21
645.3509
 31
0.0
  0
LINE
  5
165
100
AcDbEntity
  8
____
  6
CONTINUOUS
 62
     7
100
AcDbLine
 10
687.4173
 20
644.5807
 30
0.0
 11
687.4833
 21
644.9674
 31
0.0
  0
LINE
  5
166
100
AcDbEntity
  8
____
  6
CONTINUOUS
 62
     7
100
AcDbLine
 10
687.3661
 20
644.1905
 30
0.0
 11
687.4173
 21
644.5807
 31
0.0
  0
LINE
  5
167
100
AcDbEntity
  8
____
  6
CONTINUOUS
 62
     7
100
AcDbLine
 10
687.3294
 20
643.797
 30
0.0
 11
687.3661
 21
644.1905
 31
0.0
  0
LINE
  5
168
100
AcDbEntity
  8
____
  6
CONTINUOUS
 62
     7
100
AcDbLine
 10
687.3074
 20
643.4001
 30
0.0
 11
687.3294
 21
643.797
 31
0.0
  0
LINE
  5
169
100
AcDbEntity
  8
____
  6
CONTINUOUS
 62
     7
100
AcDbLine
 10
687.3
 20
643.0
 30
0.0
 11
687.3074
 21
643.4001
 31
0.0
  0
LINE
  5
16A
100
AcDbEntity
  8
____
  6
CONTINUOUS
 62
     7
100
AcDbLine
 10
687.3074
 20
642.5997
 30
0.0
 11
687.3
 21
643.0
 31
0.0
  0
LINE
  5
16B
100
AcDbEntity
  8
____
  6
CONTINUOUS
 62
     7
100
AcDbLine
 10
687.3294
 20
642.2028
 30
0.0
 11
687.3074
 21
642.5997
 31
0.0
  0
LINE
  5
16C
100
AcDbEntity
  8
____
  6
CONTINUOUS
 62
     7
100
AcDbLine
 10
687.3661
 20
641.8093
 30
0.0
 11
687.3294
 21
642.2028
 31
0.0
  0
LINE
  5
16D
100
AcDbEntity
  8
____
  6
CONTINUOUS
 62
     7
100
AcDbLine
 10
687.4173
 20
641.4192
 30
0.0
 11
687.3661
 21
641.8093
 31
0.0
  0
POLYLINE
  5
16E
100
AcDbEntity
  8
____
  6
CONTINUOUS
 62
     7
100
AcDb2dPolyline
 66
     1
 10
0.0
 20
0.0
 30
0.0
 70
     1
 75
     5
  0
VERTEX
  5
16F
100
AcDbEntity
  8
____
  6
CONTINUOUS
 62
     7
100
AcDbVertex
100
AcDb2dVertex
 10
-526.2
 20
1080.0
 30
0.0
  0
VERTEX
  5
170
100
AcDbEntity
  8
____
  6
CONTINUOUS
 62
     7
100
AcDbVertex
100
AcDb2dVertex
 10
-1286.2
 20
1080.0
 30
0.0
  0
VERTEX
  5
171
100
AcDbEntity
  8
____
  6
CONTINUOUS
 62
     7
100
AcDbVertex
100
AcDb2dVertex
 10
-1286.2
 20
980.0
 30
0.0
  0
VERTEX
  5
172
100
AcDbEntity
  8
____
  6
CONTINUOUS
 62
     7
100
AcDbVertex
100
AcDb2dVertex
 10
-526.2
 20
980.0
 30
0.0
  0
SEQEND
  5
173
100
AcDbEntity
  8
____
  6
CONTINUOUS
  0
POLYLINE
  5
174
100
AcDbEntity
  8
____
  6
CONTINUOUS
 62
     7
100
AcDb2dPolyline
 66
     1
 10
0.0
 20
0.0
 30
0.0
 70
     1
 75
     5
  0
VERTEX
  5
175
100
AcDbEntity
  8
____
  6
CONTINUOUS
 62
     7
100
AcDbVertex
100
AcDb2dVertex
 10
-1286.2
 20
1080.0
 30
0.0
  0
VERTEX
  5
176
100
AcDbEntity
  8
____
  6
CONTINUOUS
 62
     7
100
AcDbVertex
100
AcDb2dVertex
 10
-1386.2
 20
1080.0
 30
0.0
  0
VERTEX
  5
177
100
AcDbEntity
  8
____
  6
CONTINUOUS
 62
     7
100
AcDbVertex
100
AcDb2dVertex
 10
-1386.2
 20
330.0
 30
0.0
  0
VERTEX
  5
178
100
AcDbEntity
  8
____
  6
CONTINUOUS
 62
     7
100
AcDbVertex
100
AcDb2dVertex
 10
-1286.2
 20
330.0
 30
0.0
  0
SEQEND
  5
179
100
AcDbEntity
  8
____
  6
CONTINUOUS
  0
POLYLINE
  5
17A
100
AcDbEntity
  8
____
  6
CONTINUOUS
 62
     7
100
AcDb2dPolyline
 66
     1
 10
0.0
 20
0.0
 30
0.0
 70
     1
 75
     5
  0
VERTEX
  5
17B
100
AcDbEntity
  8
____
  6
CONTINUOUS
 62
     7
100
AcDbVertex
100
AcDb2dVertex
 10
-553.2
 20
327.0
 30
0.0
  0
VERTEX
  5
17C
100
AcDbEntity
  8
____
  6
CONTINUOUS
 62
     7
100
AcDbVertex
100
AcDb2dVertex
 10
-1259.2
 20
327.0
 30
0.0
  0
VERTEX
  5
17D
100
AcDbEntity
  8
____
  6
CONTINUOUS
 62
     7
100
AcDbVertex
100
AcDb2dVertex
 10
-1259.2
 20
310.0
 30
0.0
  0
VERTEX
  5
17E
100
AcDbEntity
  8
____
  6
CONTINUOUS
 62
     7
100
AcDbVertex
100
AcDb2dVertex
 10
-553.2
 20
310.0
 30
0.0
  0
SEQEND
  5
17F
100
AcDbEntity
  8
____
  6
CONTINUOUS
  0
POLYLINE
  5
180
100
AcDbEntity
  8
____
  6
CONTINUOUS
 62
     7
100
AcDb2dPolyline
 66
     1
 10
0.0
 20
0.0
 30
0.0
 70
     1
 75
     5
  0
VERTEX
  5
181
100
AcDbEntity
  8
____
  6
CONTINUOUS
 62
     7
100
AcDbVertex
100
AcDb2dVertex
 10
-526.2
 20
405.0
 30
0.0
  0
VERTEX
  5
182
100
AcDbEntity
  8
____
  6
CONTINUOUS
 62
     7
100
AcDbVertex
100
AcDb2dVertex
 10
-676.2
 20
405.0
 30
0.0
  0
VERTEX
  5
183
100
AcDbEntity
  8
____
  6
CONTINUOUS
 62
     7
100
AcDbVertex
100
AcDb2dVertex
 10
-706.2
 20
375.0
 30
0.0
  0
VERTEX
  5
184
100
AcDbEntity
  8
____
  6
CONTINUOUS
 62
     7
100
AcDbVertex
100
AcDb2dVertex
 10
-706.2
 20
330.0
 30
0.0
  0
VERTEX
  5
185
100
AcDbEntity
  8
____
  6
CONTINUOUS
 62
     7
100
AcDbVertex
100
AcDb2dVertex
 10
-526.2
 20
330.0
 30
0.0
  0
SEQEND
  5
186
100
AcDbEntity
  8
____
  6
CONTINUOUS
  0
POLYLINE
  5
187
100
AcDbEntity
  8
____
  6
CONTINUOUS
 62
     7
100
AcDb2dPolyline
 66
     1
 10
0.0
 20
0.0
 30
0.0
 70
     1
 75
     5
  0
VERTEX
  5
188
100
AcDbEntity
  8
____
  6
CONTINUOUS
 62
     7
100
AcDbVertex
100
AcDb2dVertex
 10
-1226.2
 20
915.0
 30
0.0
  0
VERTEX
  5
189
100
AcDbEntity
  8
____
  6
CONTINUOUS
 62
     7
100
AcDbVertex
100
AcDb2dVertex
 10
-1286.2
 20
915.0
 30
0.0
  0
VERTEX
  5
18A
100
AcDbEntity
  8
____
  6
CONTINUOUS
 62
     7
100
AcDbVertex
100
AcDb2dVertex
 10
-1286.2
 20
330.0
 30
0.0
  0
VERTEX
  5
18B
100
AcDbEntity
  8
____
  6
CONTINUOUS
 62
     7
100
AcDbVertex
100
AcDb2dVertex
 10
-1226.2
 20
330.0
 30
0.0
  0
SEQEND
  5
18C
100
AcDbEntity
  8
____
  6
CONTINUOUS
  0
POLYLINE
  5
18D
100
AcDbEntity
  8
____
  6
CONTINUOUS
 62
     7
100
AcDb2dPolyline
 66
     1
 10
0.0
 20
0.0
 30
0.0
 70
     1
 75
     5
  0
VERTEX
  5
18E
100
AcDbEntity
  8
____
  6
CONTINUOUS
 62
     7
100
AcDbVertex
100
AcDb2dVertex
 10
-621.2
 20
720.0
 30
0.0
  0
VERTEX
  5
18F
100
AcDbEntity
  8
____
  6
CONTINUOUS
 62
     7
100
AcDbVertex
100
AcDb2dVertex
 10
-1191.2
 20
720.0
 30
0.0
  0
VERTEX
  5
190
100
AcDbEntity
  8
____
  6
CONTINUOUS
 62
     7
100
AcDbVertex
100
AcDb2dVertex
 10
-1191.2
 20
600.0
 30
0.0
  0
VERTEX
  5
191
100
AcDbEntity
  8
____
  6
CONTINUOUS
 62
     7
100
AcDbVertex
100
AcDb2dVertex
 10
-621.2
 20
600.0
 30
0.0
  0
SEQEND
  5
192
100
AcDbEntity
  8
____
  6
CONTINUOUS
  0
POLYLINE
  5
193
100
AcDbEntity
  8
____
  6
CONTINUOUS
 62
     7
100
AcDb2dPolyline
 66
     1
 10
0.0
 20
0.0
 30
0.0
 70
     1
 75
     5
  0
VERTEX
  5
194
100
AcDbEntity
  8
____
  6
CONTINUOUS
 62
     7
100
AcDbVertex
100
AcDb2dVertex
 10
-731.2
 20
678.0
 30
0.0
  0
VERTEX
  5
195
100
AcDbEntity
  8
____
  6
CONTINUOUS
 62
     7
100
AcDbVertex
100
AcDb2dVertex
 10
-871.2
 20
678.0
 30
0.0
  0
VERTEX
  5
196
100
AcDbEntity
  8
____
  6
CONTINUOUS
 62
     7
100
AcDbVertex
100
AcDb2dVertex
 10
-871.2
 20
642.0
 30
0.0
  0
VERTEX
  5
197
100
AcDbEntity
  8
____
  6
CONTINUOUS
 62
     7
100
AcDbVertex
100
AcDb2dVertex
 10
-731.2
 20
642.0
 30
0.0
  0
SEQEND
  5
198
100
AcDbEntity
  8
____
  6
CONTINUOUS
  0
POLYLINE
  5
199
100
AcDbEntity
  8
____
  6
CONTINUOUS
 62
     7
100
AcDb2dPolyline
 66
     1
 10
0.0
 20
0.0
 30
0.0
 70
     1
 75
     5
  0
VERTEX
  5
19A
100
AcDbEntity
  8
____
  6
CONTINUOUS
 62
     7
100
AcDbVertex
100
AcDb2dVertex
 10
-781.2
 20
673.5
 30
0.0
  0
VERTEX
  5
19B
100
AcDbEntity
  8
____
  6
CONTINUOUS
 62
     7
100
AcDbVertex
100
AcDb2dVertex
 10
-821.2
 20
673.5
 30
0.0
  0
VERTEX
  5
19C
100
AcDbEntity
  8
____
  6
CONTINUOUS
 62
     7
100
AcDbVertex
100
AcDb2dVertex
 10
-821.2
 20
646.5
 30
0.0
  0
VERTEX
  5
19D
100
AcDbEntity
  8
____
  6
CONTINUOUS
 62
     7
100
AcDbVertex
100
AcDb2dVertex
 10
-781.2
 20
646.5
 30
0.0
  0
SEQEND
  5
19E
100
AcDbEntity
  8
____
  6
CONTINUOUS
  0
LINE
  5
19F
100
AcDbEntity
  8
____
  6
CONTINUOUS
 62
     7
100
AcDbLine
 10
-1081.2
 20
715.0
 30
0.0
 11
-1081.2
 21
605.0
 31
0.0
  0
LINE
  5
1A0
100
AcDbEntity
  8
____
  6
CONTINUOUS
 62
     7
100
AcDbLine
 10
-981.2
 20
715.0
 30
0.0
 11
-981.2
 21
605.0
 31
0.0
  0
ARC
  5
1A1
100
AcDbEntity
  8
____
  6
VECTORWORKS_DASH_02
 62
     7
100
AcDbCircle
 10
-1031.2
 20
660.0
 30
0.0
 40
45.0
100
AcDbArc
 50
181.000054
 51
180.0
  0
ARC
  5
1A2
100
AcDbEntity
  8
____
  6
VECTORWORKS_DASH_01
 62
     7
100
AcDbCircle
 10
-1031.2
 20
660.0
 30
0.0
 40
25.0
100
AcDbArc
 50
180.999976
 51
180.0
  0
LINE
  5
1A3
100
AcDbEntity
  8
____
  6
VECTORWORKS_DASH_02
 62
     7
100
AcDbLine
 10
-915.7
 20
340.0
 30
0.0
 11
-1025.932
 21
616.9029
 31
0.0
  0
LINE
  5
1A4
100
AcDbEntity
  8
____
  6
VECTORWORKS_DASH_09
 62
     7
100
AcDbLine
 10
-966.2
 20
957.5
 30
0.0
 11
-966.2
 21
282.5
 31
0.0
  0
POLYLINE
  5
1A5
100
AcDbEntity
  8
____
  6
CONTINUOUS
 62
     7
100
AcDb2dPolyline
 66
     1
 10
0.0
 20
0.0
 30
0.0
 70
     1
 75
     5
  0
VERTEX
  5
1A6
100
AcDbEntity
  8
____
  6
CONTINUOUS
 62
     7
100
AcDbVertex
100
AcDb2dVertex
 10
-446.2
 20
665.0
 30
0.0
  0
VERTEX
  5
1A7
100
AcDbEntity
  8
____
  6
CONTINUOUS
 62
     7
100
AcDbVertex
100
AcDb2dVertex
 10
-526.2
 20
665.0
 30
0.0
  0
VERTEX
  5
1A8
100
AcDbEntity
  8
____
  6
CONTINUOUS
 62
     7
100
AcDbVertex
100
AcDb2dVertex
 10
-526.2
 20
655.0
 30
0.0
  0
VERTEX
  5
1A9
100
AcDbEntity
  8
____
  6
CONTINUOUS
 62
     7
100
AcDbVertex
100
AcDb2dVertex
 10
-446.2
 20
655.0
 30
0.0
  0
SEQEND
  5
1AA
100
AcDbEntity
  8
____
  6
CONTINUOUS
  0
LINE
  5
1AB
100
AcDbEntity
  8
____
  6
VECTORWORKS_DASH_09
 62
     7
100
AcDbLine
 10
-1366.2
 20
660.0
 30
0.0
 11
-436.2
 21
660.0
 31
0.0
  0
POLYLINE
  5
1AC
100
AcDbEntity
  8
____
  6
CONTINUOUS
 62
     7
100
AcDb2dPolyline
 66
     1
 10
0.0
 20
0.0
 30
0.0
 70
     1
 75
     5
  0
VERTEX
  5
1AD
100
AcDbEntity
  8
____
  6
CONTINUOUS
 62
     7
100
AcDbVertex
100
AcDb2dVertex
 10
-986.2
 20
456.0
 30
0.0
  0
VERTEX
  5
1AE
100
AcDbEntity
  8
____
  6
CONTINUOUS
 62
     7
100
AcDbVertex
100
AcDb2dVertex
 10
-1011.2
 20
497.0
 30
0.0
  0
VERTEX
  5
1AF
100
AcDbEntity
  8
____
  6
CONTINUOUS
 62
     7
100
AcDbVertex
100
AcDb2dVertex
 10
-1036.2
 20
456.0
 30
0.0
  0
VERTEX
  5
1B0
100
AcDbEntity
  8
____
  6
CONTINUOUS
 62
     7
100
AcDbVertex
100
AcDb2dVertex
 10
-1021.2
 20
456.0
 30
0.0
  0
VERTEX
  5
1B1
100
AcDbEntity
  8
____
  6
CONTINUOUS
 62
     7
100
AcDbVertex
100
AcDb2dVertex
 10
-1021.2
 20
384.0
 30
0.0
  0
VERTEX
  5
1B2
100
AcDbEntity
  8
____
  6
CONTINUOUS
 62
     7
100
AcDbVertex
100
AcDb2dVertex
 10
-1001.2
 20
384.0
 30
0.0
  0
VERTEX
  5
1B3
100
AcDbEntity
  8
____
  6
CONTINUOUS
 62
     7
100
AcDbVertex
100
AcDb2dVertex
 10
-1001.2
 20
456.0
 30
0.0
  0
SEQEND
  5
1B4
100
AcDbEntity
  8
____
  6
CONTINUOUS
  0
POLYLINE
  5
1B5
100
AcDbEntity
  8
____
  6
CONTINUOUS
 62
     7
100
AcDb2dPolyline
 66
     1
 10
0.0
 20
0.0
 30
0.0
 70
     1
 75
     5
  0
VERTEX
  5
1B6
100
AcDbEntity
  8
____
  6
CONTINUOUS
 62
     7
100
AcDbVertex
100
AcDb2dVertex
 10
-585.2
 20
740.0
 30
0.0
  0
VERTEX
  5
1B7
100
AcDbEntity
  8
____
  6
CONTINUOUS
 62
     7
100
AcDbVertex
100
AcDb2dVertex
 10
-544.2
 20
765.0
 30
0.0
  0
VERTEX
  5
1B8
100
AcDbEntity
  8
____
  6
CONTINUOUS
 62
     7
100
AcDbVertex
100
AcDb2dVertex
 10
-585.2
 20
790.0
 30
0.0
  0
VERTEX
  5
1B9
100
AcDbEntity
  8
____
  6
CONTINUOUS
 62
     7
100
AcDbVertex
100
AcDb2dVertex
 10
-585.2
 20
775.0
 30
0.0
  0
VERTEX
  5
1BA
100
AcDbEntity
  8
____
  6
CONTINUOUS
 62
     7
100
AcDbVertex
100
AcDb2dVertex
 10
-657.2
 20
775.0
 30
0.0
  0
VERTEX
  5
1BB
100
AcDbEntity
  8
____
  6
CONTINUOUS
 62
     7
100
AcDbVertex
100
AcDb2dVertex
 10
-657.2
 20
755.0
 30
0.0
  0
VERTEX
  5
1BC
100
AcDbEntity
  8
____
  6
CONTINUOUS
 62
     7
100
AcDbVertex
100
AcDb2dVertex
 10
-585.2
 20
755.0
 30
0.0
  0
SEQEND
  5
1BD
100
AcDbEntity
  8
____
  6
CONTINUOUS
  0
POLYLINE
  5
1BE
100
AcDbEntity
  8
____
  6
CONTINUOUS
 62
     7
100
AcDb2dPolyline
 66
     1
 10
0.0
 20
0.0
 30
0.0
 70
   129
  0
VERTEX
  5
4BB
100
AcDbEntity
  8
____
  6
CONTINUOUS
 62
     7
100
AcDbVertex
100
AcDb2dVertex
 10
-917.2
 20
346.0
 30
0.0
 42
-0.414214
  0
VERTEX
  5
4BC
100
AcDbEntity
  8
____
  6
CONTINUOUS
 62
     7
100
AcDbVertex
100
AcDb2dVertex
 10
-906.2
 20
357.0
 30
0.0
 42
-0.414214
  0
VERTEX
  5
4BD
100
AcDbEntity
  8
____
  6
CONTINUOUS
 62
     7
100
AcDbVertex
100
AcDb2dVertex
 10
-895.2
 20
346.0
 30
0.0
 42
-0.414214
  0
VERTEX
  5
4BE
100
AcDbEntity
  8
____
  6
CONTINUOUS
 62
     7
100
AcDbVertex
100
AcDb2dVertex
 10
-906.2
 20
335.0
 30
0.0
 42
-0.414214
  0
VERTEX
  5
4BF
100
AcDbEntity
  8
____
  6
CONTINUOUS
 62
     7
100
AcDbVertex
100
AcDb2dVertex
 10
-917.2
 20
346.0
 30
0.0
 42
-0.414214
  0
SEQEND
  5
4C0
100
AcDbEntity
  8
____
  6
CONTINUOUS
 62
     7
  0
LINE
  5
1BF
100
AcDbEntity
  8
____
  6
VECTORWORKS_DASH_02
 62
     7
100
AcDbLine
 10
-895.7
 20
349.0
 30
0.0
 11
-1006.2
 21
624.0
 31
0.0
  0
POLYLINE
  5
1C0
100
AcDbEntity
  8
____
  6
CONTINUOUS
 62
     7
100
AcDb2dPolyline
 66
     1
 10
0.0
 20
0.0
 30
0.0
 70
     1
 75
     5
  0
VERTEX
  5
1C1
100
AcDbEntity
  8
____
  6
CONTINUOUS
 62
     7
100
AcDbVertex
100
AcDb2dVertex
 10
-526.2
 20
-120.0
 30
0.0
  0
VERTEX
  5
1C2
100
AcDbEntity
  8
____
  6
CONTINUOUS
 62
     7
100
AcDbVertex
100
AcDb2dVertex
 10
-1286.2
 20
-120.0
 30
0.0
  0
VERTEX
  5
1C3
100
AcDbEntity
  8
____
  6
CONTINUOUS
 62
     7
100
AcDbVertex
100
AcDb2dVertex
 10
-1286.2
 20
-270.0
 30
0.0
  0
VERTEX
  5
1C4
100
AcDbEntity
  8
____
  6
CONTINUOUS
 62
     7
100
AcDbVertex
100
AcDb2dVertex
 10
-526.2
 20
-270.0
 30
0.0
  0
SEQEND
  5
1C5
100
AcDbEntity
  8
____
  6
CONTINUOUS
  0
POLYLINE
  5
1C6
100
AcDbEntity
  8
____
  6
CONTINUOUS
 62
     7
100
AcDb2dPolyline
 66
     1
 10
0.0
 20
0.0
 30
0.0
 70
     1
 75
     5
  0
VERTEX
  5
1C7
100
AcDbEntity
  8
____
  6
CONTINUOUS
 62
     7
100
AcDbVertex
100
AcDb2dVertex
 10
-1286.2
 20
-120.0
 30
0.0
  0
VERTEX
  5
1C8
100
AcDbEntity
  8
____
  6
CONTINUOUS
 62
     7
100
AcDbVertex
100
AcDb2dVertex
 10
-1386.2
 20
-120.0
 30
0.0
  0
VERTEX
  5
1C9
100
AcDbEntity
  8
____
  6
CONTINUOUS
 62
     7
100
AcDbVertex
100
AcDb2dVertex
 10
-1386.2
 20
-340.0
 30
0.0
  0
VERTEX
  5
1CA
100
AcDbEntity
  8
____
  6
CONTINUOUS
 62
     7
100
AcDbVertex
100
AcDb2dVertex
 10
-1286.2
 20
-340.0
 30
0.0
  0
SEQEND
  5
1CB
100
AcDbEntity
  8
____
  6
CONTINUOUS
  0
POLYLINE
  5
1CC
100
AcDbEntity
  8
____
  6
CONTINUOUS
 62
     7
100
AcDb2dPolyline
 66
     1
 10
0.0
 20
0.0
 30
0.0
 70
     1
 75
     5
  0
VERTEX
  5
1CD
100
AcDbEntity
  8
____
  6
CONTINUOUS
 62
     7
100
AcDbVertex
100
AcDb2dVertex
 10
-526.2
 20
-270.0
 30
0.0
  0
VERTEX
  5
1CE
100
AcDbEntity
  8
____
  6
CONTINUOUS
 62
     7
100
AcDbVertex
100
AcDb2dVertex
 10
-1286.2
 20
-270.0
 30
0.0
  0
VERTEX
  5
1CF
100
AcDbEntity
  8
____
  6
CONTINUOUS
 62
     7
100
AcDbVertex
100
AcDb2dVertex
 10
-1286.2
 20
-290.0
 30
0.0
  0
VERTEX
  5
1D0
100
AcDbEntity
  8
____
  6
CONTINUOUS
 62
     7
100
AcDbVertex
100
AcDb2dVertex
 10
-526.2
 20
-290.0
 30
0.0
  0
SEQEND
  5
1D1
100
AcDbEntity
  8
____
  6
CONTINUOUS
  0
POLYLINE
  5
1D2
100
AcDbEntity
  8
____
  6
CONTINUOUS
 62
     7
100
AcDb2dPolyline
 66
     1
 10
0.0
 20
0.0
 30
0.0
 70
     1
 75
     5
  0
VERTEX
  5
1D3
100
AcDbEntity
  8
____
  6
CONTINUOUS
 62
     7
100
AcDbVertex
100
AcDb2dVertex
 10
-1226.2
 20
-270.0
 30
0.0
  0
VERTEX
  5
1D4
100
AcDbEntity
  8
____
  6
CONTINUOUS
 62
     7
100
AcDbVertex
100
AcDb2dVertex
 10
-1286.2
 20
-270.0
 30
0.0
  0
VERTEX
  5
1D5
100
AcDbEntity
  8
____
  6
CONTINUOUS
 62
     7
100
AcDbVertex
100
AcDb2dVertex
 10
-1286.2
 20
-290.0
 30
0.0
  0
VERTEX
  5
1D6
100
AcDbEntity
  8
____
  6
CONTINUOUS
 62
     7
100
AcDbVertex
100
AcDb2dVertex
 10
-1226.2
 20
-290.0
 30
0.0
  0
SEQEND
  5
1D7
100
AcDbEntity
  8
____
  6
CONTINUOUS
  0
POLYLINE
  5
1D8
100
AcDbEntity
  8
____
  6
CONTINUOUS
 62
     7
100
AcDb2dPolyline
 66
     1
 10
0.0
 20
0.0
 30
0.0
 70
     1
 75
     5
  0
VERTEX
  5
1D9
100
AcDbEntity
  8
____
  6
CONTINUOUS
 62
     7
100
AcDbVertex
100
AcDb2dVertex
 10
-526.2
 20
-270.0
 30
0.0
  0
VERTEX
  5
1DA
100
AcDbEntity
  8
____
  6
CONTINUOUS
 62
     7
100
AcDbVertex
100
AcDb2dVertex
 10
-706.2
 20
-270.0
 30
0.0
  0
VERTEX
  5
1DB
100
AcDbEntity
  8
____
  6
CONTINUOUS
 62
     7
100
AcDbVertex
100
AcDb2dVertex
 10
-706.2
 20
-290.0
 30
0.0
  0
VERTEX
  5
1DC
100
AcDbEntity
  8
____
  6
CONTINUOUS
 62
     7
100
AcDbVertex
100
AcDb2dVertex
 10
-526.2
 20
-290.0
 30
0.0
  0
SEQEND
  5
1DD
100
AcDbEntity
  8
____
  6
CONTINUOUS
  0
POLYLINE
  5
1DE
100
AcDbEntity
  8
____
  6
CONTINUOUS
 62
     7
100
AcDb2dPolyline
 66
     1
 10
0.0
 20
0.0
 30
0.0
 70
   129
  0
VERTEX
  5
4C1
100
AcDbEntity
  8
____
  6
CONTINUOUS
 62
     7
100
AcDbVertex
100
AcDb2dVertex
 10
1341.8
 20
462.5
 30
0.0
  0
VERTEX
  5
4C2
100
AcDbEntity
  8
____
  6
CONTINUOUS
 62
     7
100
AcDbVertex
100
AcDb2dVertex
 10
1378.8
 20
462.5
 30
0.0
 42
-0.414214
  0
VERTEX
  5
4C3
100
AcDbEntity
  8
____
  6
CONTINUOUS
 62
     7
100
AcDbVertex
100
AcDb2dVertex
 10
1383.8
 20
457.5
 30
0.0
  0
VERTEX
  5
4C4
100
AcDbEntity
  8
____
  6
CONTINUOUS
 62
     7
100
AcDbVertex
100
AcDb2dVertex
 10
1383.8
 20
440.5
 30
0.0
 42
-0.414214
  0
VERTEX
  5
4C5
100
AcDbEntity
  8
____
  6
CONTINUOUS
 62
     7
100
AcDbVertex
100
AcDb2dVertex
 10
1378.8
 20
435.5
 30
0.0
  0
VERTEX
  5
4C6
100
AcDbEntity
  8
____
  6
CONTINUOUS
 62
     7
100
AcDbVertex
100
AcDb2dVertex
 10
1341.8
 20
435.5
 30
0.0
  0
VERTEX
  5
4C7
100
AcDbEntity
  8
____
  6
CONTINUOUS
 62
     7
100
AcDbVertex
100
AcDb2dVertex
 10
1341.8
 20
462.5
 30
0.0
  0
SEQEND
  5
4C8
100
AcDbEntity
  8
____
  6
CONTINUOUS
 62
     7
  0
POLYLINE
  5
1DF
100
AcDbEntity
  8
____
  6
CONTINUOUS
 62
     7
100
AcDb2dPolyline
 66
     1
 10
0.0
 20
0.0
 30
0.0
 70
   129
  0
VERTEX
  5
4C9
100
AcDbEntity
  8
____
  6
CONTINUOUS
 62
     7
100
AcDbVertex
100
AcDb2dVertex
 10
1341.8
 20
467.0
 30
0.0
 42
0.414214
  0
VERTEX
  5
4CA
100
AcDbEntity
  8
____
  6
CONTINUOUS
 62
     7
100
AcDbVertex
100
AcDb2dVertex
 10
1338.8
 20
470.0
 30
0.0
  0
VERTEX
  5
4CB
100
AcDbEntity
  8
____
  6
CONTINUOUS
 62
     7
100
AcDbVertex
100
AcDb2dVertex
 10
1334.8
 20
470.0
 30
0.0
 42
0.414214
  0
VERTEX
  5
4CC
100
AcDbEntity
  8
____
  6
CONTINUOUS
 62
     7
100
AcDbVertex
100
AcDb2dVertex
 10
1331.8
 20
467.0
 30
0.0
  0
VERTEX
  5
4CD
100
AcDbEntity
  8
____
  6
CONTINUOUS
 62
     7
100
AcDbVertex
100
AcDb2dVertex
 10
1331.8
 20
431.0
 30
0.0
 42
0.414214
  0
VERTEX
  5
4CE
100
AcDbEntity
  8
____
  6
CONTINUOUS
 62
     7
100
AcDbVertex
100
AcDb2dVertex
 10
1334.8
 20
428.0
 30
0.0
  0
VERTEX
  5
4CF
100
AcDbEntity
  8
____
  6
CONTINUOUS
 62
     7
100
AcDbVertex
100
AcDb2dVertex
 10
1338.8
 20
428.0
 30
0.0
 42
0.414214
  0
VERTEX
  5
4D0
100
AcDbEntity
  8
____
  6
CONTINUOUS
 62
     7
100
AcDbVertex
100
AcDb2dVertex
 10
1341.8
 20
431.0
 30
0.0
  0
VERTEX
  5
4D1
100
AcDbEntity
  8
____
  6
CONTINUOUS
 62
     7
100
AcDbVertex
100
AcDb2dVertex
 10
1341.8
 20
467.0
 30
0.0
  0
SEQEND
  5
4D2
100
AcDbEntity
  8
____
  6
CONTINUOUS
 62
     7
  0
LINE
  5
1E0
100
AcDbEntity
  8
____
  6
CONTINUOUS
 62
     7
100
AcDbLine
 10
-1286.2
 20
-290.0
 30
0.0
 11
-526.2
 21
-290.0
 31
0.0
  0
LINE
  5
1E1
100
AcDbEntity
  8
____
  6
CONTINUOUS
 62
     7
100
AcDbLine
 10
-1286.2
 20
-310.0
 30
0.0
 11
-1286.2
 21
-290.0
 31
0.0
  0
LINE
  5
1E2
100
AcDbEntity
  8
____
  6
CONTINUOUS
 62
     7
100
AcDbLine
 10
-1284.2
 20
-310.0
 30
0.0
 11
-1286.2
 21
-310.0
 31
0.0
  0
LINE
  5
1E3
100
AcDbEntity
  8
____
  6
CONTINUOUS
 62
     7
100
AcDbLine
 10
-1284.2
 20
-292.0
 30
0.0
 11
-1284.2
 21
-310.0
 31
0.0
  0
LINE
  5
1E4
100
AcDbEntity
  8
____
  6
CONTINUOUS
 62
     7
100
AcDbLine
 10
-1259.2
 20
-292.0
 30
0.0
 11
-1284.2
 21
-292.0
 31
0.0
  0
LINE
  5
1E5
100
AcDbEntity
  8
____
  6
CONTINUOUS
 62
     7
100
AcDbLine
 10
-528.2
 20
-310.0
 30
0.0
 11
-528.2
 21
-292.0
 31
0.0
  0
LINE
  5
1E6
100
AcDbEntity
  8
____
  6
CONTINUOUS
 62
     7
100
AcDbLine
 10
-526.2
 20
-310.0
 30
0.0
 11
-528.2
 21
-310.0
 31
0.0
  0
LINE
  5
1E7
100
AcDbEntity
  8
____
  6
CONTINUOUS
 62
     7
100
AcDbLine
 10
-526.2
 20
-290.0
 30
0.0
 11
-526.2
 21
-310.0
 31
0.0
  0
POLYLINE
  5
1E8
100
AcDbEntity
  8
____
  6
CONTINUOUS
 62
     7
100
AcDb2dPolyline
 66
     1
 10
0.0
 20
0.0
 30
0.0
 70
     1
 75
     5
  0
VERTEX
  5
1E9
100
AcDbEntity
  8
____
  6
CONTINUOUS
 62
     7
100
AcDbVertex
100
AcDb2dVertex
 10
-1286.2
 20
-320.0
 30
0.0
  0
VERTEX
  5
1EA
100
AcDbEntity
  8
____
  6
CONTINUOUS
 62
     7
100
AcDbVertex
100
AcDb2dVertex
 10
-1286.2
 20
-362.0
 30
0.0
  0
VERTEX
  5
1EB
100
AcDbEntity
  8
____
  6
CONTINUOUS
 62
     7
100
AcDbVertex
100
AcDb2dVertex
 10
-1156.2
 20
-362.0
 30
0.0
  0
VERTEX
  5
1EC
100
AcDbEntity
  8
____
  6
CONTINUOUS
 62
     7
100
AcDbVertex
100
AcDb2dVertex
 10
-1156.2
 20
-385.0
 30
0.0
  0
VERTEX
  5
1ED
100
AcDbEntity
  8
____
  6
CONTINUOUS
 62
     7
100
AcDbVertex
100
AcDb2dVertex
 10
-1154.2
 20
-385.0
 30
0.0
  0
VERTEX
  5
1EE
100
AcDbEntity
  8
____
  6
CONTINUOUS
 62
     7
100
AcDbVertex
100
AcDb2dVertex
 10
-1154.2
 20
-360.0
 30
0.0
  0
VERTEX
  5
1EF
100
AcDbEntity
  8
____
  6
CONTINUOUS
 62
     7
100
AcDbVertex
100
AcDb2dVertex
 10
-1284.2
 20
-360.0
 30
0.0
  0
VERTEX
  5
1F0
100
AcDbEntity
  8
____
  6
CONTINUOUS
 62
     7
100
AcDbVertex
100
AcDb2dVertex
 10
-1284.2
 20
-320.0
 30
0.0
  0
SEQEND
  5
1F1
100
AcDbEntity
  8
____
  6
CONTINUOUS
  0
POLYLINE
  5
1F2
100
AcDbEntity
  8
____
  6
CONTINUOUS
 62
     7
100
AcDb2dPolyline
 66
     1
 10
0.0
 20
0.0
 30
0.0
 70
     1
 75
     5
  0
VERTEX
  5
1F3
100
AcDbEntity
  8
____
  6
CONTINUOUS
 62
     7
100
AcDbVertex
100
AcDb2dVertex
 10
-746.2
 20
-360.0
 30
0.0
  0
VERTEX
  5
1F4
100
AcDbEntity
  8
____
  6
CONTINUOUS
 62
     7
100
AcDbVertex
100
AcDb2dVertex
 10
-746.2
 20
-385.0
 30
0.0
  0
VERTEX
  5
1F5
100
AcDbEntity
  8
____
  6
CONTINUOUS
 62
     7
100
AcDbVertex
100
AcDb2dVertex
 10
-748.2
 20
-385.0
 30
0.0
  0
VERTEX
  5
1F6
100
AcDbEntity
  8
____
  6
CONTINUOUS
 62
     7
100
AcDbVertex
100
AcDb2dVertex
 10
-748.2
 20
-362.0
 30
0.0
  0
VERTEX
  5
1F7
100
AcDbEntity
  8
____
  6
CONTINUOUS
 62
     7
100
AcDbVertex
100
AcDb2dVertex
 10
-804.2
 20
-362.0
 30
0.0
  0
VERTEX
  5
1F8
100
AcDbEntity
  8
____
  6
CONTINUOUS
 62
     7
100
AcDbVertex
100
AcDb2dVertex
 10
-804.2
 20
-385.0
 30
0.0
  0
VERTEX
  5
1F9
100
AcDbEntity
  8
____
  6
CONTINUOUS
 62
     7
100
AcDbVertex
100
AcDb2dVertex
 10
-806.2
 20
-385.0
 30
0.0
  0
VERTEX
  5
1FA
100
AcDbEntity
  8
____
  6
CONTINUOUS
 62
     7
100
AcDbVertex
100
AcDb2dVertex
 10
-806.2
 20
-360.0
 30
0.0
  0
SEQEND
  5
1FB
100
AcDbEntity
  8
____
  6
CONTINUOUS
  0
POLYLINE
  5
1FC
100
AcDbEntity
  8
____
  6
CONTINUOUS
 62
     7
100
AcDb2dPolyline
 66
     1
 10
0.0
 20
0.0
 30
0.0
 70
   129
  0
VERTEX
  5
4D3
100
AcDbEntity
  8
____
  6
CONTINUOUS
 62
     7
100
AcDbVertex
100
AcDb2dVertex
 10
-1212.7
 20
-1048.0
 30
0.0
  0
VERTEX
  5
4D4
100
AcDbEntity
  8
____
  6
CONTINUOUS
 62
     7
100
AcDbVertex
100
AcDb2dVertex
 10
-1212.7
 20
-1085.0
 30
0.0
 42
-0.414214
  0
VERTEX
  5
4D5
100
AcDbEntity
  8
____
  6
CONTINUOUS
 62
     7
100
AcDbVertex
100
AcDb2dVertex
 10
-1217.7
 20
-1090.0
 30
0.0
  0
VERTEX
  5
4D6
100
AcDbEntity
  8
____
  6
CONTINUOUS
 62
     7
100
AcDbVertex
100
AcDb2dVertex
 10
-1234.7
 20
-1090.0
 30
0.0
 42
-0.414214
  0
VERTEX
  5
4D7
100
AcDbEntity
  8
____
  6
CONTINUOUS
 62
     7
100
AcDbVertex
100
AcDb2dVertex
 10
-1239.7
 20
-1085.0
 30
0.0
  0
VERTEX
  5
4D8
100
AcDbEntity
  8
____
  6
CONTINUOUS
 62
     7
100
AcDbVertex
100
AcDb2dVertex
 10
-1239.7
 20
-1048.0
 30
0.0
  0
VERTEX
  5
4D9
100
AcDbEntity
  8
____
  6
CONTINUOUS
 62
     7
100
AcDbVertex
100
AcDb2dVertex
 10
-1212.7
 20
-1048.0
 30
0.0
  0
SEQEND
  5
4DA
100
AcDbEntity
  8
____
  6
CONTINUOUS
 62
     7
  0
POLYLINE
  5
1FD
100
AcDbEntity
  8
____
  6
CONTINUOUS
 62
     7
100
AcDb2dPolyline
 66
     1
 10
0.0
 20
0.0
 30
0.0
 70
   129
  0
VERTEX
  5
4DB
100
AcDbEntity
  8
____
  6
CONTINUOUS
 62
     7
100
AcDbVertex
100
AcDb2dVertex
 10
-1208.2
 20
-1048.0
 30
0.0
 42
0.414214
  0
VERTEX
  5
4DC
100
AcDbEntity
  8
____
  6
CONTINUOUS
 62
     7
100
AcDbVertex
100
AcDb2dVertex
 10
-1205.2
 20
-1045.0
 30
0.0
  0
VERTEX
  5
4DD
100
AcDbEntity
  8
____
  6
CONTINUOUS
 62
     7
100
AcDbVertex
100
AcDb2dVertex
 10
-1205.2
 20
-1041.0
 30
0.0
 42
0.414214
  0
VERTEX
  5
4DE
100
AcDbEntity
  8
____
  6
CONTINUOUS
 62
     7
100
AcDbVertex
100
AcDb2dVertex
 10
-1208.2
 20
-1038.0
 30
0.0
  0
VERTEX
  5
4DF
100
AcDbEntity
  8
____
  6
CONTINUOUS
 62
     7
100
AcDbVertex
100
AcDb2dVertex
 10
-1244.2
 20
-1038.0
 30
0.0
 42
0.414214
  0
VERTEX
  5
4E0
100
AcDbEntity
  8
____
  6
CONTINUOUS
 62
     7
100
AcDbVertex
100
AcDb2dVertex
 10
-1247.2
 20
-1041.0
 30
0.0
  0
VERTEX
  5
4E1
100
AcDbEntity
  8
____
  6
CONTINUOUS
 62
     7
100
AcDbVertex
100
AcDb2dVertex
 10
-1247.2
 20
-1045.0
 30
0.0
 42
0.414214
  0
VERTEX
  5
4E2
100
AcDbEntity
  8
____
  6
CONTINUOUS
 62
     7
100
AcDbVertex
100
AcDb2dVertex
 10
-1244.2
 20
-1048.0
 30
0.0
  0
VERTEX
  5
4E3
100
AcDbEntity
  8
____
  6
CONTINUOUS
 62
     7
100
AcDbVertex
100
AcDb2dVertex
 10
-1208.2
 20
-1048.0
 30
0.0
  0
SEQEND
  5
4E4
100
AcDbEntity
  8
____
  6
CONTINUOUS
 62
     7
  0
POLYLINE
  5
1FE
100
AcDbEntity
  8
____
  6
CONTINUOUS
 62
     7
100
AcDb2dPolyline
 66
     1
 10
0.0
 20
0.0
 30
0.0
 70
   129
  0
VERTEX
  5
4E5
100
AcDbEntity
  8
____
  6
CONTINUOUS
 62
     7
100
AcDbVertex
100
AcDb2dVertex
 10
-1246.2
 20
-915.0
 30
0.0
  0
VERTEX
  5
4E6
100
AcDbEntity
  8
____
  6
CONTINUOUS
 62
     7
100
AcDbVertex
100
AcDb2dVertex
 10
-1247.7286
 20
-918.2101
 30
0.0
 42
0.111567
  0
VERTEX
  5
4E7
100
AcDbEntity
  8
____
  6
CONTINUOUS
 62
     7
100
AcDbVertex
100
AcDb2dVertex
 10
-1248.7
 20
-922.5094
 30
0.0
  0
VERTEX
  5
4E8
100
AcDbEntity
  8
____
  6
CONTINUOUS
 62
     7
100
AcDbVertex
100
AcDb2dVertex
 10
-1248.7
 20
-957.4906
 30
0.0
 42
0.111566
  0
VERTEX
  5
4E9
100
AcDbEntity
  8
____
  6
CONTINUOUS
 62
     7
100
AcDbVertex
100
AcDb2dVertex
 10
-1247.7286
 20
-961.7899
 30
0.0
  0
VERTEX
  5
4EA
100
AcDbEntity
  8
____
  6
CONTINUOUS
 62
     7
100
AcDbVertex
100
AcDb2dVertex
 10
-1246.2
 20
-965.0
 30
0.0
  0
VERTEX
  5
4EB
100
AcDbEntity
  8
____
  6
CONTINUOUS
 62
     7
100
AcDbVertex
100
AcDb2dVertex
 10
-1206.2
 20
-965.0
 30
0.0
  0
VERTEX
  5
4EC
100
AcDbEntity
  8
____
  6
CONTINUOUS
 62
     7
100
AcDbVertex
100
AcDb2dVertex
 10
-1204.6714
 20
-961.7899
 30
0.0
 42
0.111567
  0
VERTEX
  5
4ED
100
AcDbEntity
  8
____
  6
CONTINUOUS
 62
     7
100
AcDbVertex
100
AcDb2dVertex
 10
-1203.7
 20
-957.4906
 30
0.0
  0
VERTEX
  5
4EE
100
AcDbEntity
  8
____
  6
CONTINUOUS
 62
     7
100
AcDbVertex
100
AcDb2dVertex
 10
-1203.7
 20
-954.5
 30
0.0
  0
VERTEX
  5
4EF
100
AcDbEntity
  8
____
  6
CONTINUOUS
 62
     7
100
AcDbVertex
100
AcDb2dVertex
 10
-1173.7
 20
-954.5
 30
0.0
  0
VERTEX
  5
4F0
100
AcDbEntity
  8
____
  6
CONTINUOUS
 62
     7
100
AcDbVertex
100
AcDb2dVertex
 10
-1173.7
 20
-925.5
 30
0.0
  0
VERTEX
  5
4F1
100
AcDbEntity
  8
____
  6
CONTINUOUS
 62
     7
100
AcDbVertex
100
AcDb2dVertex
 10
-1203.7
 20
-925.5
 30
0.0
  0
VERTEX
  5
4F2
100
AcDbEntity
  8
____
  6
CONTINUOUS
 62
     7
100
AcDbVertex
100
AcDb2dVertex
 10
-1203.7
 20
-922.5094
 30
0.0
 42
0.111566
  0
VERTEX
  5
4F3
100
AcDbEntity
  8
____
  6
CONTINUOUS
 62
     7
100
AcDbVertex
100
AcDb2dVertex
 10
-1204.6714
 20
-918.2101
 30
0.0
  0
VERTEX
  5
4F4
100
AcDbEntity
  8
____
  6
CONTINUOUS
 62
     7
100
AcDbVertex
100
AcDb2dVertex
 10
-1206.2
 20
-915.0
 30
0.0
  0
VERTEX
  5
4F5
100
AcDbEntity
  8
____
  6
CONTINUOUS
 62
     7
100
AcDbVertex
100
AcDb2dVertex
 10
-1246.2
 20
-915.0
 30
0.0
  0
SEQEND
  5
4F6
100
AcDbEntity
  8
____
  6
CONTINUOUS
 62
     7
  0
ARC
  5
1FF
100
AcDbEntity
  8
____
  6
CONTINUOUS
 62
     7
100
AcDbCircle
 10
-1171.7
 20
-940.5
 30
0.0
 40
35.0322
100
AcDbArc
 50
163.025513
 51
195.419492
  0
POLYLINE
  5
200
100
AcDbEntity
  8
____
  6
CONTINUOUS
 62
     7
100
AcDb2dPolyline
 66
     1
 10
0.0
 20
0.0
 30
0.0
 70
   129
  0
VERTEX
  5
4F7
100
AcDbEntity
  8
____
  6
CONTINUOUS
 62
     7
100
AcDbVertex
100
AcDb2dVertex
 10
-762.7
 20
-1048.0
 30
0.0
  0
VERTEX
  5
4F8
100
AcDbEntity
  8
____
  6
CONTINUOUS
 62
     7
100
AcDbVertex
100
AcDb2dVertex
 10
-762.7
 20
-1085.0
 30
0.0
 42
-0.414214
  0
VERTEX
  5
4F9
100
AcDbEntity
  8
____
  6
CONTINUOUS
 62
     7
100
AcDbVertex
100
AcDb2dVertex
 10
-767.7
 20
-1090.0
 30
0.0
  0
VERTEX
  5
4FA
100
AcDbEntity
  8
____
  6
CONTINUOUS
 62
     7
100
AcDbVertex
100
AcDb2dVertex
 10
-784.7
 20
-1090.0
 30
0.0
 42
-0.414214
  0
VERTEX
  5
4FB
100
AcDbEntity
  8
____
  6
CONTINUOUS
 62
     7
100
AcDbVertex
100
AcDb2dVertex
 10
-789.7
 20
-1085.0
 30
0.0
  0
VERTEX
  5
4FC
100
AcDbEntity
  8
____
  6
CONTINUOUS
 62
     7
100
AcDbVertex
100
AcDb2dVertex
 10
-789.7
 20
-1048.0
 30
0.0
  0
VERTEX
  5
4FD
100
AcDbEntity
  8
____
  6
CONTINUOUS
 62
     7
100
AcDbVertex
100
AcDb2dVertex
 10
-762.7
 20
-1048.0
 30
0.0
  0
SEQEND
  5
4FE
100
AcDbEntity
  8
____
  6
CONTINUOUS
 62
     7
  0
POLYLINE
  5
201
100
AcDbEntity
  8
____
  6
CONTINUOUS
 62
     7
100
AcDb2dPolyline
 66
     1
 10
0.0
 20
0.0
 30
0.0
 70
   129
  0
VERTEX
  5
4FF
100
AcDbEntity
  8
____
  6
CONTINUOUS
 62
     7
100
AcDbVertex
100
AcDb2dVertex
 10
-758.2
 20
-1048.0
 30
0.0
 42
0.414214
  0
VERTEX
  5
500
100
AcDbEntity
  8
____
  6
CONTINUOUS
 62
     7
100
AcDbVertex
100
AcDb2dVertex
 10
-755.2
 20
-1045.0
 30
0.0
  0
VERTEX
  5
501
100
AcDbEntity
  8
____
  6
CONTINUOUS
 62
     7
100
AcDbVertex
100
AcDb2dVertex
 10
-755.2
 20
-1041.0
 30
0.0
 42
0.414214
  0
VERTEX
  5
502
100
AcDbEntity
  8
____
  6
CONTINUOUS
 62
     7
100
AcDbVertex
100
AcDb2dVertex
 10
-758.2
 20
-1038.0
 30
0.0
  0
VERTEX
  5
503
100
AcDbEntity
  8
____
  6
CONTINUOUS
 62
     7
100
AcDbVertex
100
AcDb2dVertex
 10
-794.2
 20
-1038.0
 30
0.0
 42
0.414214
  0
VERTEX
  5
504
100
AcDbEntity
  8
____
  6
CONTINUOUS
 62
     7
100
AcDbVertex
100
AcDb2dVertex
 10
-797.2
 20
-1041.0
 30
0.0
  0
VERTEX
  5
505
100
AcDbEntity
  8
____
  6
CONTINUOUS
 62
     7
100
AcDbVertex
100
AcDb2dVertex
 10
-797.2
 20
-1045.0
 30
0.0
 42
0.414214
  0
VERTEX
  5
506
100
AcDbEntity
  8
____
  6
CONTINUOUS
 62
     7
100
AcDbVertex
100
AcDb2dVertex
 10
-794.2
 20
-1048.0
 30
0.0
  0
VERTEX
  5
507
100
AcDbEntity
  8
____
  6
CONTINUOUS
 62
     7
100
AcDbVertex
100
AcDb2dVertex
 10
-758.2
 20
-1048.0
 30
0.0
  0
SEQEND
  5
508
100
AcDbEntity
  8
____
  6
CONTINUOUS
 62
     7
  0
POLYLINE
  5
202
100
AcDbEntity
  8
____
  6
CONTINUOUS
 62
     7
100
AcDb2dPolyline
 66
     1
 10
0.0
 20
0.0
 30
0.0
 70
   129
  0
VERTEX
  5
509
100
AcDbEntity
  8
____
  6
CONTINUOUS
 62
     7
100
AcDbVertex
100
AcDb2dVertex
 10
-756.2
 20
-915.0
 30
0.0
  0
VERTEX
  5
50A
100
AcDbEntity
  8
____
  6
CONTINUOUS
 62
     7
100
AcDbVertex
100
AcDb2dVertex
 10
-754.6714
 20
-918.2101
 30
0.0
 42
-0.111566
  0
VERTEX
  5
50B
100
AcDbEntity
  8
____
  6
CONTINUOUS
 62
     7
100
AcDbVertex
100
AcDb2dVertex
 10
-753.7
 20
-922.5094
 30
0.0
  0
VERTEX
  5
50C
100
AcDbEntity
  8
____
  6
CONTINUOUS
 62
     7
100
AcDbVertex
100
AcDb2dVertex
 10
-753.7
 20
-957.4906
 30
0.0
 42
-0.111567
  0
VERTEX
  5
50D
100
AcDbEntity
  8
____
  6
CONTINUOUS
 62
     7
100
AcDbVertex
100
AcDb2dVertex
 10
-754.6714
 20
-961.7899
 30
0.0
  0
VERTEX
  5
50E
100
AcDbEntity
  8
____
  6
CONTINUOUS
 62
     7
100
AcDbVertex
100
AcDb2dVertex
 10
-756.2
 20
-965.0
 30
0.0
  0
VERTEX
  5
50F
100
AcDbEntity
  8
____
  6
CONTINUOUS
 62
     7
100
AcDbVertex
100
AcDb2dVertex
 10
-796.2
 20
-965.0
 30
0.0
  0
VERTEX
  5
510
100
AcDbEntity
  8
____
  6
CONTINUOUS
 62
     7
100
AcDbVertex
100
AcDb2dVertex
 10
-797.7286
 20
-961.7899
 30
0.0
 42
-0.111566
  0
VERTEX
  5
511
100
AcDbEntity
  8
____
  6
CONTINUOUS
 62
     7
100
AcDbVertex
100
AcDb2dVertex
 10
-798.7
 20
-957.4906
 30
0.0
  0
VERTEX
  5
512
100
AcDbEntity
  8
____
  6
CONTINUOUS
 62
     7
100
AcDbVertex
100
AcDb2dVertex
 10
-798.7
 20
-954.5
 30
0.0
  0
VERTEX
  5
513
100
AcDbEntity
  8
____
  6
CONTINUOUS
 62
     7
100
AcDbVertex
100
AcDb2dVertex
 10
-828.7
 20
-954.5
 30
0.0
  0
VERTEX
  5
514
100
AcDbEntity
  8
____
  6
CONTINUOUS
 62
     7
100
AcDbVertex
100
AcDb2dVertex
 10
-828.7
 20
-925.5
 30
0.0
  0
VERTEX
  5
515
100
AcDbEntity
  8
____
  6
CONTINUOUS
 62
     7
100
AcDbVertex
100
AcDb2dVertex
 10
-798.7
 20
-925.5
 30
0.0
  0
VERTEX
  5
516
100
AcDbEntity
  8
____
  6
CONTINUOUS
 62
     7
100
AcDbVertex
100
AcDb2dVertex
 10
-798.7
 20
-922.5094
 30
0.0
 42
-0.111567
  0
VERTEX
  5
517
100
AcDbEntity
  8
____
  6
CONTINUOUS
 62
     7
100
AcDbVertex
100
AcDb2dVertex
 10
-797.7286
 20
-918.2101
 30
0.0
  0
VERTEX
  5
518
100
AcDbEntity
  8
____
  6
CONTINUOUS
 62
     7
100
AcDbVertex
100
AcDb2dVertex
 10
-796.2
 20
-915.0
 30
0.0
  0
VERTEX
  5
519
100
AcDbEntity
  8
____
  6
CONTINUOUS
 62
     7
100
AcDbVertex
100
AcDb2dVertex
 10
-756.2
 20
-915.0
 30
0.0
  0
SEQEND
  5
51A
100
AcDbEntity
  8
____
  6
CONTINUOUS
 62
     7
  0
ARC
  5
203
100
AcDbEntity
  8
____
  6
CONTINUOUS
 62
     7
100
AcDbCircle
 10
-830.7
 20
-940.5
 30
0.0
 40
35.0322
100
AcDbArc
 50
344.580508
 51
16.974487
  0
POLYLINE
  5
204
100
AcDbEntity
  8
____
  6
CONTINUOUS
 62
     7
100
AcDb2dPolyline
 66
     1
 10
0.0
 20
0.0
 30
0.0
 70
     1
 75
     5
  0
VERTEX
  5
205
100
AcDbEntity
  8
____
  6
CONTINUOUS
 62
     7
100
AcDbVertex
100
AcDb2dVertex
 10
-751.2
 20
-362.0
 30
0.0
  0
VERTEX
  5
206
100
AcDbEntity
  8
____
  6
CONTINUOUS
 62
     7
100
AcDbVertex
100
AcDb2dVertex
 10
-801.2
 20
-362.0
 30
0.0
  0
VERTEX
  5
207
100
AcDbEntity
  8
____
  6
CONTINUOUS
 62
     7
100
AcDbVertex
100
AcDb2dVertex
 10
-801.2
 20
-364.5
 30
0.0
  0
VERTEX
  5
208
100
AcDbEntity
  8
____
  6
CONTINUOUS
 62
     7
100
AcDbVertex
100
AcDb2dVertex
 10
-751.2
 20
-364.5
 30
0.0
  0
SEQEND
  5
209
100
AcDbEntity
  8
____
  6
CONTINUOUS
  0
POLYLINE
  5
20A
100
AcDbEntity
  8
____
  6
CONTINUOUS
 62
     7
100
AcDb2dPolyline
 66
     1
 10
0.0
 20
0.0
 30
0.0
 70
     1
 75
     5
  0
VERTEX
  5
20B
100
AcDbEntity
  8
____
  6
CONTINUOUS
 62
     7
100
AcDbVertex
100
AcDb2dVertex
 10
-754.7
 20
-364.5
 30
0.0
  0
VERTEX
  5
20C
100
AcDbEntity
  8
____
  6
CONTINUOUS
 62
     7
100
AcDbVertex
100
AcDb2dVertex
 10
-797.7
 20
-364.5
 30
0.0
  0
VERTEX
  5
20D
100
AcDbEntity
  8
____
  6
CONTINUOUS
 62
     7
100
AcDbVertex
100
AcDb2dVertex
 10
-797.7
 20
-409.5
 30
0.0
  0
VERTEX
  5
20E
100
AcDbEntity
  8
____
  6
CONTINUOUS
 62
     7
100
AcDbVertex
100
AcDb2dVertex
 10
-754.7
 20
-409.5
 30
0.0
  0
SEQEND
  5
20F
100
AcDbEntity
  8
____
  6
CONTINUOUS
  0
LINE
  5
210
100
AcDbEntity
  8
____
  6
VECTORWORKS_DASH_06
 62
     7
100
AcDbLine
 10
-1238.7
 20
-940.0
 30
0.0
 11
-763.7
 21
-940.0
 31
0.0
  0
POLYLINE
  5
211
100
AcDbEntity
  8
____
  6
CONTINUOUS
 62
     7
100
AcDb2dPolyline
 66
     1
 10
0.0
 20
0.0
 30
0.0
 70
     1
 75
     5
  0
VERTEX
  5
212
100
AcDbEntity
  8
____
  6
CONTINUOUS
 62
     7
100
AcDbVertex
100
AcDb2dVertex
 10
-1201.2
 20
-362.0
 30
0.0
  0
VERTEX
  5
213
100
AcDbEntity
  8
____
  6
CONTINUOUS
 62
     7
100
AcDbVertex
100
AcDb2dVertex
 10
-1251.2
 20
-362.0
 30
0.0
  0
VERTEX
  5
214
100
AcDbEntity
  8
____
  6
CONTINUOUS
 62
     7
100
AcDbVertex
100
AcDb2dVertex
 10
-1251.2
 20
-364.5
 30
0.0
  0
VERTEX
  5
215
100
AcDbEntity
  8
____
  6
CONTINUOUS
 62
     7
100
AcDbVertex
100
AcDb2dVertex
 10
-1201.2
 20
-364.5
 30
0.0
  0
SEQEND
  5
216
100
AcDbEntity
  8
____
  6
CONTINUOUS
  0
POLYLINE
  5
217
100
AcDbEntity
  8
____
  6
CONTINUOUS
 62
     7
100
AcDb2dPolyline
 66
     1
 10
0.0
 20
0.0
 30
0.0
 70
     1
 75
     5
  0
VERTEX
  5
218
100
AcDbEntity
  8
____
  6
CONTINUOUS
 62
     7
100
AcDbVertex
100
AcDb2dVertex
 10
-1204.7
 20
-364.5
 30
0.0
  0
VERTEX
  5
219
100
AcDbEntity
  8
____
  6
CONTINUOUS
 62
     7
100
AcDbVertex
100
AcDb2dVertex
 10
-1247.7
 20
-364.5
 30
0.0
  0
VERTEX
  5
21A
100
AcDbEntity
  8
____
  6
CONTINUOUS
 62
     7
100
AcDbVertex
100
AcDb2dVertex
 10
-1247.7
 20
-409.5
 30
0.0
  0
VERTEX
  5
21B
100
AcDbEntity
  8
____
  6
CONTINUOUS
 62
     7
100
AcDbVertex
100
AcDb2dVertex
 10
-1204.7
 20
-409.5
 30
0.0
  0
SEQEND
  5
21C
100
AcDbEntity
  8
____
  6
CONTINUOUS
  0
LINE
  5
21D
100
AcDbEntity
  8
____
  6
VECTORWORKS_DASH_06
 62
     7
100
AcDbLine
 10
-1226.2
 20
-348.8
 30
0.0
 11
-1226.2
 21
-1125.0
 31
0.0
  0
LINE
  5
21E
100
AcDbEntity
  8
____
  6
VECTORWORKS_DASH_06
 62
     7
100
AcDbLine
 10
-776.2
 20
-348.8
 30
0.0
 11
-776.2
 21
-1125.0
 31
0.0
  0
POLYLINE
  5
21F
100
AcDbEntity
  8
____
  6
CONTINUOUS
 62
     7
100
AcDb2dPolyline
 66
     1
 10
0.0
 20
0.0
 30
0.0
 70
     1
 75
     5
  0
VERTEX
  5
220
100
AcDbEntity
  8
____
  6
CONTINUOUS
 62
     7
100
AcDbVertex
100
AcDb2dVertex
 10
-1071.2
 20
-360.0
 30
0.0
  0
VERTEX
  5
221
100
AcDbEntity
  8
____
  6
CONTINUOUS
 62
     7
100
AcDbVertex
100
AcDb2dVertex
 10
-991.2
 20
-360.0
 30
0.0
  0
VERTEX
  5
222
100
AcDbEntity
  8
____
  6
CONTINUOUS
 62
     7
100
AcDbVertex
100
AcDb2dVertex
 10
-991.2
 20
-368.0
 30
0.0
  0
VERTEX
  5
223
100
AcDbEntity
  8
____
  6
CONTINUOUS
 62
     7
100
AcDbVertex
100
AcDb2dVertex
 10
-1071.2
 20
-368.0
 30
0.0
  0
SEQEND
  5
224
100
AcDbEntity
  8
____
  6
CONTINUOUS
  0
LINE
  5
225
100
AcDbEntity
  8
____
  6
CONTINUOUS
 62
     7
100
AcDbLine
 10
-1018.1268
 20
-424.6732
 30
0.0
 11
-1015.2
 21
-425.0
 31
0.0
  0
LINE
  5
226
100
AcDbEntity
  8
____
  6
CONTINUOUS
 62
     7
100
AcDbLine
 10
-1020.9411
 20
-423.7055
 30
0.0
 11
-1018.1268
 21
-424.6732
 31
0.0
  0
LINE
  5
227
100
AcDbEntity
  8
____
  6
CONTINUOUS
 62
     7
100
AcDbLine
 10
-1023.5347
 20
-422.1341
 30
0.0
 11
-1020.9411
 21
-423.7055
 31
0.0
  0
LINE
  5
228
100
AcDbEntity
  8
____
  6
CONTINUOUS
 62
     7
100
AcDbLine
 10
-1025.8079
 20
-420.0194
 30
0.0
 11
-1023.5347
 21
-422.1341
 31
0.0
  0
LINE
  5
229
100
AcDbEntity
  8
____
  6
CONTINUOUS
 62
     7
100
AcDbLine
 10
-1027.6733
 20
-417.4426
 30
0.0
 11
-1025.8079
 21
-420.0194
 31
0.0
  0
LINE
  5
22A
100
AcDbEntity
  8
____
  6
CONTINUOUS
 62
     7
100
AcDbLine
 10
-1029.0592
 20
-414.5028
 30
0.0
 11
-1027.6733
 21
-417.4426
 31
0.0
  0
LINE
  5
22B
100
AcDbEntity
  8
____
  6
CONTINUOUS
 62
     7
100
AcDbLine
 10
-1029.9124
 20
-411.313
 30
0.0
 11
-1029.0592
 21
-414.5028
 31
0.0
  0
LINE
  5
22C
100
AcDbEntity
  8
____
  6
CONTINUOUS
 62
     7
100
AcDbLine
 10
-1030.2
 20
-407.9958
 30
0.0
 11
-1029.9124
 21
-411.313
 31
0.0
  0
LINE
  5
22D
100
AcDbEntity
  8
____
  6
CONTINUOUS
 62
     7
100
AcDbLine
 10
-1029.9124
 20
-404.687
 30
0.0
 11
-1030.2
 21
-407.9958
 31
0.0
  0
LINE
  5
22E
100
AcDbEntity
  8
____
  6
CONTINUOUS
 62
     7
100
AcDbLine
 10
-1029.0592
 20
-401.4972
 30
0.0
 11
-1029.9124
 21
-404.687
 31
0.0
  0
LINE
  5
22F
100
AcDbEntity
  8
____
  6
CONTINUOUS
 62
     7
100
AcDbLine
 10
-1027.6733
 20
-398.5574
 30
0.0
 11
-1029.0592
 21
-401.4972
 31
0.0
  0
LINE
  5
230
100
AcDbEntity
  8
____
  6
CONTINUOUS
 62
     7
100
AcDbLine
 10
-1025.8079
 20
-395.9806
 30
0.0
 11
-1027.6733
 21
-398.5574
 31
0.0
  0
LINE
  5
231
100
AcDbEntity
  8
____
  6
CONTINUOUS
 62
     7
100
AcDbLine
 10
-1023.5347
 20
-393.8659
 30
0.0
 11
-1025.8079
 21
-395.9806
 31
0.0
  0
LINE
  5
232
100
AcDbEntity
  8
____
  6
CONTINUOUS
 62
     7
100
AcDbLine
 10
-1020.9411
 20
-392.2945
 30
0.0
 11
-1023.5347
 21
-393.8659
 31
0.0
  0
LINE
  5
233
100
AcDbEntity
  8
____
  6
CONTINUOUS
 62
     7
100
AcDbLine
 10
-1018.1268
 20
-391.3268
 30
0.0
 11
-1020.9411
 21
-392.2945
 31
0.0
  0
LINE
  5
234
100
AcDbEntity
  8
____
  6
CONTINUOUS
 62
     7
100
AcDbLine
 10
-1015.2
 20
-391.0
 30
0.0
 11
-1018.1268
 21
-391.3268
 31
0.0
  0
LINE
  5
235
100
AcDbEntity
  8
____
  6
CONTINUOUS
 62
     7
100
AcDbLine
 10
-1012.2732
 20
-391.3268
 30
0.0
 11
-1015.2
 21
-391.0
 31
0.0
  0
LINE
  5
236
100
AcDbEntity
  8
____
  6
CONTINUOUS
 62
     7
100
AcDbLine
 10
-1009.4589
 20
-392.2945
 30
0.0
 11
-1012.2732
 21
-391.3268
 31
0.0
  0
LINE
  5
237
100
AcDbEntity
  8
____
  6
CONTINUOUS
 62
     7
100
AcDbLine
 10
-1006.8653
 20
-422.1341
 30
0.0
 11
-1004.5921
 21
-420.0194
 31
0.0
  0
LINE
  5
238
100
AcDbEntity
  8
____
  6
CONTINUOUS
 62
     7
100
AcDbLine
 10
-1009.4589
 20
-423.7055
 30
0.0
 11
-1006.8653
 21
-422.1341
 31
0.0
  0
LINE
  5
239
100
AcDbEntity
  8
____
  6
CONTINUOUS
 62
     7
100
AcDbLine
 10
-1012.2732
 20
-424.6732
 30
0.0
 11
-1009.4589
 21
-423.7055
 31
0.0
  0
LINE
  5
23A
100
AcDbEntity
  8
____
  6
CONTINUOUS
 62
     7
100
AcDbLine
 10
-1015.2
 20
-425.0
 30
0.0
 11
-1012.2732
 21
-424.6732
 31
0.0
  0
LINE
  5
23B
100
AcDbEntity
  8
____
  6
CONTINUOUS
 62
     7
100
AcDbLine
 10
-1015.2
 20
-391.0
 30
0.0
 11
-1023.7
 21
-391.0
 31
0.0
  0
ARC
  5
23C
100
AcDbEntity
  8
____
  6
CONTINUOUS
 62
     7
100
AcDbCircle
 10
-1020.7
 20
-408.0
 30
0.0
 40
17.2627
100
AcDbArc
 50
100.00798
 51
259.695272
  0
LINE
  5
23D
100
AcDbEntity
  8
____
  6
CONTINUOUS
 62
     7
100
AcDbLine
 10
-1015.2
 20
-425.0
 30
0.0
 11
-1023.7
 21
-425.0
 31
0.0
  0
LINE
  5
23E
100
AcDbEntity
  8
____
  6
CONTINUOUS
 62
     7
100
AcDbLine
 10
-1032.2
 20
-452.0
 30
0.0
 11
-1032.2
 21
-354.25
 31
0.0
  0
LINE
  5
23F
100
AcDbEntity
  8
____
  6
CONTINUOUS
 62
     7
100
AcDbLine
 10
-1017.5414
 20
-421.7309
 30
0.0
 11
-1015.2
 21
-422.0
 31
0.0
  0
LINE
  5
240
100
AcDbEntity
  8
____
  6
CONTINUOUS
 62
     7
100
AcDbLine
 10
-1019.7929
 20
-420.934
 30
0.0
 11
-1017.5414
 21
-421.7309
 31
0.0
  0
LINE
  5
241
100
AcDbEntity
  8
____
  6
CONTINUOUS
 62
     7
100
AcDbLine
 10
-1021.8678
 20
-419.6398
 30
0.0
 11
-1019.7929
 21
-420.934
 31
0.0
  0
LINE
  5
242
100
AcDbEntity
  8
____
  6
CONTINUOUS
 62
     7
100
AcDbLine
 10
-1023.6863
 20
-417.8983
 30
0.0
 11
-1021.8678
 21
-419.6398
 31
0.0
  0
LINE
  5
243
100
AcDbEntity
  8
____
  6
CONTINUOUS
 62
     7
100
AcDbLine
 10
-1025.1786
 20
-415.7762
 30
0.0
 11
-1023.6863
 21
-417.8983
 31
0.0
  0
LINE
  5
244
100
AcDbEntity
  8
____
  6
CONTINUOUS
 62
     7
100
AcDbLine
 10
-1026.2874
 20
-413.3552
 30
0.0
 11
-1025.1786
 21
-415.7762
 31
0.0
  0
LINE
  5
245
100
AcDbEntity
  8
____
  6
CONTINUOUS
 62
     7
100
AcDbLine
 10
-1026.9699
 20
-410.7283
 30
0.0
 11
-1026.2874
 21
-413.3552
 31
0.0
  0
LINE
  5
246
100
AcDbEntity
  8
____
  6
CONTINUOUS
 62
     7
100
AcDbLine
 10
-1027.2
 20
-407.9966
 30
0.0
 11
-1026.9699
 21
-410.7283
 31
0.0
  0
LINE
  5
247
100
AcDbEntity
  8
____
  6
CONTINUOUS
 62
     7
100
AcDbLine
 10
-1026.9699
 20
-405.2717
 30
0.0
 11
-1027.2
 21
-407.9966
 31
0.0
  0
LINE
  5
248
100
AcDbEntity
  8
____
  6
CONTINUOUS
 62
     7
100
AcDbLine
 10
-1026.2874
 20
-402.6448
 30
0.0
 11
-1026.9699
 21
-405.2717
 31
0.0
  0
LINE
  5
249
100
AcDbEntity
  8
____
  6
CONTINUOUS
 62
     7
100
AcDbLine
 10
-1025.1786
 20
-400.2238
 30
0.0
 11
-1026.2874
 21
-402.6448
 31
0.0
  0
LINE
  5
24A
100
AcDbEntity
  8
____
  6
CONTINUOUS
 62
     7
100
AcDbLine
 10
-1023.6863
 20
-398.1017
 30
0.0
 11
-1025.1786
 21
-400.2238
 31
0.0
  0
LINE
  5
24B
100
AcDbEntity
  8
____
  6
CONTINUOUS
 62
     7
100
AcDbLine
 10
-1021.8678
 20
-396.3602
 30
0.0
 11
-1023.6863
 21
-398.1017
 31
0.0
  0
LINE
  5
24C
100
AcDbEntity
  8
____
  6
CONTINUOUS
 62
     7
100
AcDbLine
 10
-1019.7929
 20
-395.066
 30
0.0
 11
-1021.8678
 21
-396.3602
 31
0.0
  0
LINE
  5
24D
100
AcDbEntity
  8
____
  6
CONTINUOUS
 62
     7
100
AcDbLine
 10
-1017.5414
 20
-394.2691
 30
0.0
 11
-1019.7929
 21
-395.066
 31
0.0
  0
LINE
  5
24E
100
AcDbEntity
  8
____
  6
CONTINUOUS
 62
     7
100
AcDbLine
 10
-1015.2
 20
-394.0
 30
0.0
 11
-1017.5414
 21
-394.2691
 31
0.0
  0
LINE
  5
24F
100
AcDbEntity
  8
____
  6
CONTINUOUS
 62
     7
100
AcDbLine
 10
-1012.8586
 20
-421.7309
 30
0.0
 11
-1010.6071
 21
-420.934
 31
0.0
  0
LINE
  5
250
100
AcDbEntity
  8
____
  6
CONTINUOUS
 62
     7
100
AcDbLine
 10
-1015.2
 20
-422.0
 30
0.0
 11
-1012.8586
 21
-421.7309
 31
0.0
  0
LINE
  5
251
100
AcDbEntity
  8
____
  6
CONTINUOUS
 62
     7
100
AcDbLine
 10
-915.0414
 20
-402.7309
 30
0.0
 11
-912.7
 21
-403.0
 31
0.0
  0
LINE
  5
252
100
AcDbEntity
  8
____
  6
CONTINUOUS
 62
     7
100
AcDbLine
 10
-917.2929
 20
-401.934
 30
0.0
 11
-915.0414
 21
-402.7309
 31
0.0
  0
LINE
  5
253
100
AcDbEntity
  8
____
  6
CONTINUOUS
 62
     7
100
AcDbLine
 10
-919.3678
 20
-400.6398
 30
0.0
 11
-917.2929
 21
-401.934
 31
0.0
  0
LINE
  5
254
100
AcDbEntity
  8
____
  6
CONTINUOUS
 62
     7
100
AcDbLine
 10
-921.1863
 20
-398.8983
 30
0.0
 11
-919.3678
 21
-400.6398
 31
0.0
  0
LINE
  5
255
100
AcDbEntity
  8
____
  6
CONTINUOUS
 62
     7
100
AcDbLine
 10
-922.6786
 20
-396.7762
 30
0.0
 11
-921.1863
 21
-398.8983
 31
0.0
  0
LINE
  5
256
100
AcDbEntity
  8
____
  6
CONTINUOUS
 62
     7
100
AcDbLine
 10
-923.7874
 20
-394.3552
 30
0.0
 11
-922.6786
 21
-396.7762
 31
0.0
  0
LINE
  5
257
100
AcDbEntity
  8
____
  6
CONTINUOUS
 62
     7
100
AcDbLine
 10
-924.4699
 20
-391.7283
 30
0.0
 11
-923.7874
 21
-394.3552
 31
0.0
  0
LINE
  5
258
100
AcDbEntity
  8
____
  6
CONTINUOUS
 62
     7
100
AcDbLine
 10
-924.7
 20
-388.9966
 30
0.0
 11
-924.4699
 21
-391.7283
 31
0.0
  0
LINE
  5
259
100
AcDbEntity
  8
____
  6
CONTINUOUS
 62
     7
100
AcDbLine
 10
-924.4699
 20
-386.2717
 30
0.0
 11
-924.7
 21
-388.9966
 31
0.0
  0
LINE
  5
25A
100
AcDbEntity
  8
____
  6
CONTINUOUS
 62
     7
100
AcDbLine
 10
-923.7874
 20
-383.6448
 30
0.0
 11
-924.4699
 21
-386.2717
 31
0.0
  0
LINE
  5
25B
100
AcDbEntity
  8
____
  6
CONTINUOUS
 62
     7
100
AcDbLine
 10
-922.6786
 20
-381.2238
 30
0.0
 11
-923.7874
 21
-383.6448
 31
0.0
  0
LINE
  5
25C
100
AcDbEntity
  8
____
  6
CONTINUOUS
 62
     7
100
AcDbLine
 10
-921.1863
 20
-379.1017
 30
0.0
 11
-922.6786
 21
-381.2238
 31
0.0
  0
LINE
  5
25D
100
AcDbEntity
  8
____
  6
CONTINUOUS
 62
     7
100
AcDbLine
 10
-912.7
 20
-403.0
 30
0.0
 11
-910.3586
 21
-402.7309
 31
0.0
  0
POLYLINE
  5
25E
100
AcDbEntity
  8
____
  6
CONTINUOUS
 62
     7
100
AcDb2dPolyline
 66
     1
 10
0.0
 20
0.0
 30
0.0
 70
   128
  0
VERTEX
  5
51B
100
AcDbEntity
  8
____
  6
CONTINUOUS
 62
     7
100
AcDbVertex
100
AcDb2dVertex
 10
-892.2
 20
-365.0
 30
0.0
  0
VERTEX
  5
51C
100
AcDbEntity
  8
____
  6
CONTINUOUS
 62
     7
100
AcDbVertex
100
AcDb2dVertex
 10
-920.2
 20
-365.0
 30
0.0
  0
VERTEX
  5
51D
100
AcDbEntity
  8
____
  6
CONTINUOUS
 62
     7
100
AcDbVertex
100
AcDb2dVertex
 10
-920.2
 20
-384.0
 30
0.0
  0
SEQEND
  5
51E
100
AcDbEntity
  8
____
  6
CONTINUOUS
 62
     7
  0
POLYLINE
  5
25F
100
AcDbEntity
  8
____
  6
CONTINUOUS
 62
     7
100
AcDb2dPolyline
 66
     1
 10
0.0
 20
0.0
 30
0.0
 70
   128
  0
VERTEX
  5
51F
100
AcDbEntity
  8
____
  6
CONTINUOUS
 62
     7
100
AcDbVertex
100
AcDb2dVertex
 10
-910.2
 20
-403.0
 30
0.0
  0
VERTEX
  5
520
100
AcDbEntity
  8
____
  6
CONTINUOUS
 62
     7
100
AcDbVertex
100
AcDb2dVertex
 10
-906.2
 20
-403.0
 30
0.0
 42
0.414214
  0
VERTEX
  5
521
100
AcDbEntity
  8
____
  6
CONTINUOUS
 62
     7
100
AcDbVertex
100
AcDb2dVertex
 10
-892.2
 20
-389.0
 30
0.0
  0
VERTEX
  5
522
100
AcDbEntity
  8
____
  6
CONTINUOUS
 62
     7
100
AcDbVertex
100
AcDb2dVertex
 10
-892.2
 20
-365.0
 30
0.0
  0
SEQEND
  5
523
100
AcDbEntity
  8
____
  6
CONTINUOUS
 62
     7
  0
LINE
  5
260
100
AcDbEntity
  8
____
  6
CONTINUOUS
 62
     7
100
AcDbLine
 10
1383.8
 20
1125.0
 30
0.0
 11
1383.8
 21
-105.0
 31
0.0
  0
LINE
  5
261
100
AcDbEntity
  8
____
  6
CONTINUOUS
 62
     7
100
AcDbLine
 10
751.55
 20
660.0
 30
0.0
 11
665.8
 21
660.0
 31
0.0
  0
POLYLINE
  5
262
100
AcDbEntity
  8
____
  6
CONTINUOUS
 62
     7
100
AcDb2dPolyline
 66
     1
 10
0.0
 20
0.0
 30
0.0
 70
   129
  0
VERTEX
  5
524
100
AcDbEntity
  8
____
  6
CONTINUOUS
 62
     7
100
AcDbVertex
100
AcDb2dVertex
 10
1341.8
 20
912.5
 30
0.0
  0
VERTEX
  5
525
100
AcDbEntity
  8
____
  6
CONTINUOUS
 62
     7
100
AcDbVertex
100
AcDb2dVertex
 10
1378.8
 20
912.5
 30
0.0
 42
-0.414214
  0
VERTEX
  5
526
100
AcDbEntity
  8
____
  6
CONTINUOUS
 62
     7
100
AcDbVertex
100
AcDb2dVertex
 10
1383.8
 20
907.5
 30
0.0
  0
VERTEX
  5
527
100
AcDbEntity
  8
____
  6
CONTINUOUS
 62
     7
100
AcDbVertex
100
AcDb2dVertex
 10
1383.8
 20
890.5
 30
0.0
 42
-0.414214
  0
VERTEX
  5
528
100
AcDbEntity
  8
____
  6
CONTINUOUS
 62
     7
100
AcDbVertex
100
AcDb2dVertex
 10
1378.8
 20
885.5
 30
0.0
  0
VERTEX
  5
529
100
AcDbEntity
  8
____
  6
CONTINUOUS
 62
     7
100
AcDbVertex
100
AcDb2dVertex
 10
1341.8
 20
885.5
 30
0.0
  0
VERTEX
  5
52A
100
AcDbEntity
  8
____
  6
CONTINUOUS
 62
     7
100
AcDbVertex
100
AcDb2dVertex
 10
1341.8
 20
912.5
 30
0.0
  0
SEQEND
  5
52B
100
AcDbEntity
  8
____
  6
CONTINUOUS
 62
     7
  0
POLYLINE
  5
263
100
AcDbEntity
  8
____
  6
CONTINUOUS
 62
     7
100
AcDb2dPolyline
 66
     1
 10
0.0
 20
0.0
 30
0.0
 70
     1
 75
     5
  0
VERTEX
  5
264
100
AcDbEntity
  8
____
  6
CONTINUOUS
 62
     7
100
AcDbVertex
100
AcDb2dVertex
 10
583.8
 20
1080.0
 30
0.0
  0
VERTEX
  5
265
100
AcDbEntity
  8
____
  6
CONTINUOUS
 62
     7
100
AcDbVertex
100
AcDb2dVertex
 10
413.8
 20
1080.0
 30
0.0
  0
VERTEX
  5
266
100
AcDbEntity
  8
____
  6
CONTINUOUS
 62
     7
100
AcDbVertex
100
AcDb2dVertex
 10
413.8
 20
330.0
 30
0.0
  0
VERTEX
  5
267
100
AcDbEntity
  8
____
  6
CONTINUOUS
 62
     7
100
AcDbVertex
100
AcDb2dVertex
 10
583.8
 20
330.0
 30
0.0
  0
SEQEND
  5
268
100
AcDbEntity
  8
____
  6
CONTINUOUS
  0
POLYLINE
  5
269
100
AcDbEntity
  8
____
  6
CONTINUOUS
 62
     7
100
AcDb2dPolyline
 66
     1
 10
0.0
 20
0.0
 30
0.0
 70
     1
 75
     5
  0
VERTEX
  5
26A
100
AcDbEntity
  8
____
  6
CONTINUOUS
 62
     7
100
AcDbVertex
100
AcDb2dVertex
 10
583.8
 20
980.0
 30
0.0
  0
VERTEX
  5
26B
100
AcDbEntity
  8
____
  6
CONTINUOUS
 62
     7
100
AcDbVertex
100
AcDb2dVertex
 10
563.8
 20
980.0
 30
0.0
  0
VERTEX
  5
26C
100
AcDbEntity
  8
____
  6
CONTINUOUS
 62
     7
100
AcDbVertex
100
AcDb2dVertex
 10
563.8
 20
330.0
 30
0.0
  0
VERTEX
  5
26D
100
AcDbEntity
  8
____
  6
CONTINUOUS
 62
     7
100
AcDbVertex
100
AcDb2dVertex
 10
583.8
 20
330.0
 30
0.0
  0
SEQEND
  5
26E
100
AcDbEntity
  8
____
  6
CONTINUOUS
  0
POLYLINE
  5
26F
100
AcDbEntity
  8
____
  6
CONTINUOUS
 62
     7
100
AcDb2dPolyline
 66
     1
 10
0.0
 20
0.0
 30
0.0
 70
     1
 75
     5
  0
VERTEX
  5
270
100
AcDbEntity
  8
____
  6
CONTINUOUS
 62
     7
100
AcDbVertex
100
AcDb2dVertex
 10
583.8
 20
1080.0
 30
0.0
  0
VERTEX
  5
271
100
AcDbEntity
  8
____
  6
CONTINUOUS
 62
     7
100
AcDbVertex
100
AcDb2dVertex
 10
413.8
 20
1080.0
 30
0.0
  0
VERTEX
  5
272
100
AcDbEntity
  8
____
  6
CONTINUOUS
 62
     7
100
AcDbVertex
100
AcDb2dVertex
 10
413.8
 20
980.0
 30
0.0
  0
VERTEX
  5
273
100
AcDbEntity
  8
____
  6
CONTINUOUS
 62
     7
100
AcDbVertex
100
AcDb2dVertex
 10
583.8
 20
980.0
 30
0.0
  0
SEQEND
  5
274
100
AcDbEntity
  8
____
  6
CONTINUOUS
  0
POLYLINE
  5
275
100
AcDbEntity
  8
____
  6
CONTINUOUS
 62
     7
100
AcDb2dPolyline
 66
     1
 10
0.0
 20
0.0
 30
0.0
 70
     1
 75
     5
  0
VERTEX
  5
276
100
AcDbEntity
  8
____
  6
CONTINUOUS
 62
     7
100
AcDbVertex
100
AcDb2dVertex
 10
583.8
 20
980.0
 30
0.0
  0
VERTEX
  5
277
100
AcDbEntity
  8
____
  6
CONTINUOUS
 62
     7
100
AcDbVertex
100
AcDb2dVertex
 10
563.8
 20
980.0
 30
0.0
  0
VERTEX
  5
278
100
AcDbEntity
  8
____
  6
CONTINUOUS
 62
     7
100
AcDbVertex
100
AcDb2dVertex
 10
563.8
 20
915.0
 30
0.0
  0
VERTEX
  5
279
100
AcDbEntity
  8
____
  6
CONTINUOUS
 62
     7
100
AcDbVertex
100
AcDb2dVertex
 10
583.8
 20
915.0
 30
0.0
  0
SEQEND
  5
27A
100
AcDbEntity
  8
____
  6
CONTINUOUS
  0
POLYLINE
  5
27B
100
AcDbEntity
  8
____
  6
CONTINUOUS
 62
     7
100
AcDb2dPolyline
 66
     1
 10
0.0
 20
0.0
 30
0.0
 70
     1
 75
     5
  0
VERTEX
  5
27C
100
AcDbEntity
  8
____
  6
CONTINUOUS
 62
     7
100
AcDbVertex
100
AcDb2dVertex
 10
583.8
 20
405.0
 30
0.0
  0
VERTEX
  5
27D
100
AcDbEntity
  8
____
  6
CONTINUOUS
 62
     7
100
AcDbVertex
100
AcDb2dVertex
 10
563.8
 20
405.0
 30
0.0
  0
VERTEX
  5
27E
100
AcDbEntity
  8
____
  6
CONTINUOUS
 62
     7
100
AcDbVertex
100
AcDb2dVertex
 10
563.8
 20
330.0
 30
0.0
  0
VERTEX
  5
27F
100
AcDbEntity
  8
____
  6
CONTINUOUS
 62
     7
100
AcDbVertex
100
AcDb2dVertex
 10
583.8
 20
330.0
 30
0.0
  0
SEQEND
  5
280
100
AcDbEntity
  8
____
  6
CONTINUOUS
  0
POLYLINE
  5
281
100
AcDbEntity
  8
____
  6
CONTINUOUS
 62
     7
100
AcDb2dPolyline
 66
     1
 10
0.0
 20
0.0
 30
0.0
 70
   129
  0
VERTEX
  5
52C
100
AcDbEntity
  8
____
  6
CONTINUOUS
 62
     7
100
AcDbVertex
100
AcDb2dVertex
 10
1341.8
 20
917.0
 30
0.0
 42
0.414214
  0
VERTEX
  5
52D
100
AcDbEntity
  8
____
  6
CONTINUOUS
 62
     7
100
AcDbVertex
100
AcDb2dVertex
 10
1338.8
 20
920.0
 30
0.0
  0
VERTEX
  5
52E
100
AcDbEntity
  8
____
  6
CONTINUOUS
 62
     7
100
AcDbVertex
100
AcDb2dVertex
 10
1334.8
 20
920.0
 30
0.0
 42
0.414214
  0
VERTEX
  5
52F
100
AcDbEntity
  8
____
  6
CONTINUOUS
 62
     7
100
AcDbVertex
100
AcDb2dVertex
 10
1331.8
 20
917.0
 30
0.0
  0
VERTEX
  5
530
100
AcDbEntity
  8
____
  6
CONTINUOUS
 62
     7
100
AcDbVertex
100
AcDb2dVertex
 10
1331.8
 20
881.0
 30
0.0
 42
0.414214
  0
VERTEX
  5
531
100
AcDbEntity
  8
____
  6
CONTINUOUS
 62
     7
100
AcDbVertex
100
AcDb2dVertex
 10
1334.8
 20
878.0
 30
0.0
  0
VERTEX
  5
532
100
AcDbEntity
  8
____
  6
CONTINUOUS
 62
     7
100
AcDbVertex
100
AcDb2dVertex
 10
1338.8
 20
878.0
 30
0.0
 42
0.414214
  0
VERTEX
  5
533
100
AcDbEntity
  8
____
  6
CONTINUOUS
 62
     7
100
AcDbVertex
100
AcDb2dVertex
 10
1341.8
 20
881.0
 30
0.0
  0
VERTEX
  5
534
100
AcDbEntity
  8
____
  6
CONTINUOUS
 62
     7
100
AcDbVertex
100
AcDb2dVertex
 10
1341.8
 20
917.0
 30
0.0
  0
SEQEND
  5
535
100
AcDbEntity
  8
____
  6
CONTINUOUS
 62
     7
  0
POLYLINE
  5
282
100
AcDbEntity
  8
____
  6
CONTINUOUS
 62
     7
100
AcDb2dPolyline
 66
     1
 10
0.0
 20
0.0
 30
0.0
 70
     1
 75
     5
  0
VERTEX
  5
283
100
AcDbEntity
  8
____
  6
CONTINUOUS
 62
     7
100
AcDbVertex
100
AcDb2dVertex
 10
656.3
 20
474.0
 30
0.0
  0
VERTEX
  5
284
100
AcDbEntity
  8
____
  6
CONTINUOUS
 62
     7
100
AcDbVertex
100
AcDb2dVertex
 10
653.8
 20
474.0
 30
0.0
  0
VERTEX
  5
285
100
AcDbEntity
  8
____
  6
CONTINUOUS
 62
     7
100
AcDbVertex
100
AcDb2dVertex
 10
653.8
 20
424.0
 30
0.0
  0
VERTEX
  5
286
100
AcDbEntity
  8
____
  6
CONTINUOUS
 62
     7
100
AcDbVertex
100
AcDb2dVertex
 10
656.3
 20
424.0
 30
0.0
  0
SEQEND
  5
287
100
AcDbEntity
  8
____
  6
CONTINUOUS
  0
POLYLINE
  5
288
100
AcDbEntity
  8
____
  6
CONTINUOUS
 62
     7
100
AcDb2dPolyline
 66
     1
 10
0.0
 20
0.0
 30
0.0
 70
     1
 75
     5
  0
VERTEX
  5
289
100
AcDbEntity
  8
____
  6
CONTINUOUS
 62
     7
100
AcDbVertex
100
AcDb2dVertex
 10
701.3
 20
470.5
 30
0.0
  0
VERTEX
  5
28A
100
AcDbEntity
  8
____
  6
CONTINUOUS
 62
     7
100
AcDbVertex
100
AcDb2dVertex
 10
656.3
 20
470.5
 30
0.0
  0
VERTEX
  5
28B
100
AcDbEntity
  8
____
  6
CONTINUOUS
 62
     7
100
AcDbVertex
100
AcDb2dVertex
 10
656.3
 20
427.5
 30
0.0
  0
VERTEX
  5
28C
100
AcDbEntity
  8
____
  6
CONTINUOUS
 62
     7
100
AcDbVertex
100
AcDb2dVertex
 10
701.3
 20
427.5
 30
0.0
  0
SEQEND
  5
28D
100
AcDbEntity
  8
____
  6
CONTINUOUS
  0
LINE
  5
28E
100
AcDbEntity
  8
____
  6
VECTORWORKS_DASH_06
 62
     7
100
AcDbLine
 10
666.3
 20
449.0
 30
0.0
 11
1430.0
 21
449.0
 31
0.0
  0
LINE
  5
28F
100
AcDbEntity
  8
____
  6
VECTORWORKS_DASH_06
 62
     7
100
AcDbLine
 10
666.8
 20
899.0
 30
0.0
 11
1419.0
 21
899.0
 31
0.0
  0
LINE
  5
290
100
AcDbEntity
  8
____
  6
CONTINUOUS
 62
     7
100
AcDbLine
 10
696.9315
 20
353.0192
 30
0.0
 11
696.8656
 21
352.6323
 31
0.0
  0
LINE
  5
291
100
AcDbEntity
  8
____
  6
CONTINUOUS
 62
     7
100
AcDbLine
 10
696.9828
 20
353.4093
 30
0.0
 11
696.9315
 21
353.0192
 31
0.0
  0
LINE
  5
292
100
AcDbEntity
  8
____
  6
CONTINUOUS
 62
     7
100
AcDbLine
 10
697.0194
 20
353.8028
 30
0.0
 11
696.9828
 21
353.4093
 31
0.0
  0
LINE
  5
293
100
AcDbEntity
  8
____
  6
CONTINUOUS
 62
     7
100
AcDbLine
 10
697.0414
 20
354.1997
 30
0.0
 11
697.0194
 21
353.8028
 31
0.0
  0
LINE
  5
294
100
AcDbEntity
  8
____
  6
CONTINUOUS
 62
     7
100
AcDbLine
 10
697.0487
 20
354.6
 30
0.0
 11
697.0414
 21
354.1997
 31
0.0
  0
LINE
  5
295
100
AcDbEntity
  8
____
  6
CONTINUOUS
 62
     7
100
AcDbLine
 10
697.0414
 20
355.0001
 30
0.0
 11
697.0487
 21
354.6
 31
0.0
  0
LINE
  5
296
100
AcDbEntity
  8
____
  6
CONTINUOUS
 62
     7
100
AcDbLine
 10
697.0194
 20
355.397
 30
0.0
 11
697.0414
 21
355.0001
 31
0.0
  0
LINE
  5
297
100
AcDbEntity
  8
____
  6
CONTINUOUS
 62
     7
100
AcDbLine
 10
696.9828
 20
355.7905
 30
0.0
 11
697.0194
 21
355.397
 31
0.0
  0
LINE
  5
298
100
AcDbEntity
  8
____
  6
CONTINUOUS
 62
     7
100
AcDbLine
 10
696.9315
 20
356.1807
 30
0.0
 11
696.9828
 21
355.7905
 31
0.0
  0
LINE
  5
299
100
AcDbEntity
  8
____
  6
CONTINUOUS
 62
     7
100
AcDbLine
 10
696.8656
 20
356.5674
 30
0.0
 11
696.9315
 21
356.1807
 31
0.0
  0
LINE
  5
29A
100
AcDbEntity
  8
____
  6
CONTINUOUS
 62
     7
100
AcDbLine
 10
696.785
 20
356.9509
 30
0.0
 11
696.8656
 21
356.5674
 31
0.0
  0
LINE
  5
29B
100
AcDbEntity
  8
____
  6
CONTINUOUS
 62
     7
100
AcDbLine
 10
696.6898
 20
357.331
 30
0.0
 11
696.785
 21
356.9509
 31
0.0
  0
LINE
  5
29C
100
AcDbEntity
  8
____
  6
CONTINUOUS
 62
     7
100
AcDbLine
 10
696.5798
 20
357.7077
 30
0.0
 11
696.6898
 21
357.331
 31
0.0
  0
LINE
  5
29D
100
AcDbEntity
  8
____
  6
CONTINUOUS
 62
     7
100
AcDbLine
 10
696.4553
 20
358.081
 30
0.0
 11
696.5798
 21
357.7077
 31
0.0
  0
LINE
  5
29E
100
AcDbEntity
  8
____
  6
CONTINUOUS
 62
     7
100
AcDbLine
 10
696.3161
 20
358.4509
 30
0.0
 11
696.4553
 21
358.081
 31
0.0
  0
LINE
  5
29F
100
AcDbEntity
  8
____
  6
CONTINUOUS
 62
     7
100
AcDbLine
 10
696.1623
 20
358.8174
 30
0.0
 11
696.3161
 21
358.4509
 31
0.0
  0
LINE
  5
2A0
100
AcDbEntity
  8
____
  6
CONTINUOUS
 62
     7
100
AcDbLine
 10
695.9937
 20
359.1807
 30
0.0
 11
696.1623
 21
358.8174
 31
0.0
  0
LINE
  5
2A1
100
AcDbEntity
  8
____
  6
CONTINUOUS
 62
     7
100
AcDbLine
 10
695.8106
 20
359.5405
 30
0.0
 11
695.9937
 21
359.1807
 31
0.0
  0
LINE
  5
2A2
100
AcDbEntity
  8
____
  6
CONTINUOUS
 62
     7
100
AcDbLine
 10
695.6128
 20
359.897
 30
0.0
 11
695.8106
 21
359.5405
 31
0.0
  0
LINE
  5
2A3
100
AcDbEntity
  8
____
  6
CONTINUOUS
 62
     7
100
AcDbLine
 10
695.4003
 20
360.2501
 30
0.0
 11
695.6128
 21
359.897
 31
0.0
  0
LINE
  5
2A4
100
AcDbEntity
  8
____
  6
CONTINUOUS
 62
     7
100
AcDbLine
 10
695.1731
 20
360.6
 30
0.0
 11
695.4003
 21
360.2501
 31
0.0
  0
LINE
  5
2A5
100
AcDbEntity
  8
____
  6
CONTINUOUS
 62
     7
100
AcDbLine
 10
694.9334
 20
360.9434
 30
0.0
 11
695.1731
 21
360.6
 31
0.0
  0
LINE
  5
2A6
100
AcDbEntity
  8
____
  6
CONTINUOUS
 62
     7
100
AcDbLine
 10
694.6828
 20
361.2777
 30
0.0
 11
694.9334
 21
360.9434
 31
0.0
  0
LINE
  5
2A7
100
AcDbEntity
  8
____
  6
CONTINUOUS
 62
     7
100
AcDbLine
 10
694.4216
 20
361.6027
 30
0.0
 11
694.6828
 21
361.2777
 31
0.0
  0
LINE
  5
2A8
100
AcDbEntity
  8
____
  6
CONTINUOUS
 62
     7
100
AcDbLine
 10
694.1495
 20
361.9187
 30
0.0
 11
694.4216
 21
361.6027
 31
0.0
  0
LINE
  5
2A9
100
AcDbEntity
  8
____
  6
CONTINUOUS
 62
     7
100
AcDbLine
 10
693.8669
 20
362.2253
 30
0.0
 11
694.1495
 21
361.9187
 31
0.0
  0
LINE
  5
2AA
100
AcDbEntity
  8
____
  6
CONTINUOUS
 62
     7
100
AcDbLine
 10
693.5734
 20
362.5229
 30
0.0
 11
693.8669
 21
362.2253
 31
0.0
  0
LINE
  5
2AB
100
AcDbEntity
  8
____
  6
CONTINUOUS
 62
     7
100
AcDbLine
 10
693.2692
 20
362.8111
 30
0.0
 11
693.5734
 21
362.5229
 31
0.0
  0
LINE
  5
2AC
100
AcDbEntity
  8
____
  6
CONTINUOUS
 62
     7
100
AcDbLine
 10
692.9542
 20
363.0903
 30
0.0
 11
693.2692
 21
362.8111
 31
0.0
  0
LINE
  5
2AD
100
AcDbEntity
  8
____
  6
CONTINUOUS
 62
     7
100
AcDbLine
 10
692.6287
 20
363.3601
 30
0.0
 11
692.9542
 21
363.0903
 31
0.0
  0
LINE
  5
2AE
100
AcDbEntity
  8
____
  6
CONTINUOUS
 62
     7
100
AcDbLine
 10
692.2923
 20
363.6209
 30
0.0
 11
692.6287
 21
363.3601
 31
0.0
  0
LINE
  5
2AF
100
AcDbEntity
  8
____
  6
CONTINUOUS
 62
     7
100
AcDbLine
 10
691.9452
 20
363.8724
 30
0.0
 11
692.2923
 21
363.6209
 31
0.0
  0
LINE
  5
2B0
100
AcDbEntity
  8
____
  6
CONTINUOUS
 62
     7
100
AcDbLine
 10
691.5873
 20
364.1148
 30
0.0
 11
691.9452
 21
363.8724
 31
0.0
  0
LINE
  5
2B1
100
AcDbEntity
  8
____
  6
CONTINUOUS
 62
     7
100
AcDbLine
 10
691.2188
 20
364.3479
 30
0.0
 11
691.5873
 21
364.1148
 31
0.0
  0
LINE
  5
2B2
100
AcDbEntity
  8
____
  6
CONTINUOUS
 62
     7
100
AcDbLine
 10
690.8395
 20
364.5719
 30
0.0
 11
691.2188
 21
364.3479
 31
0.0
  0
LINE
  5
2B3
100
AcDbEntity
  8
____
  6
CONTINUOUS
 62
     7
100
AcDbLine
 10
690.4495
 20
364.7867
 30
0.0
 11
690.8395
 21
364.5719
 31
0.0
  0
LINE
  5
2B4
100
AcDbEntity
  8
____
  6
CONTINUOUS
 62
     7
100
AcDbLine
 10
690.0487
 20
364.9923
 30
0.0
 11
690.4495
 21
364.7867
 31
0.0
  0
LINE
  5
2B5
100
AcDbEntity
  8
____
  6
CONTINUOUS
 62
     7
100
AcDbLine
 10
689.6408
 20
365.1869
 30
0.0
 11
690.0487
 21
364.9923
 31
0.0
  0
LINE
  5
2B6
100
AcDbEntity
  8
____
  6
CONTINUOUS
 62
     7
100
AcDbLine
 10
689.2288
 20
365.369
 30
0.0
 11
689.6408
 21
365.1869
 31
0.0
  0
LINE
  5
2B7
100
AcDbEntity
  8
____
  6
CONTINUOUS
 62
     7
100
AcDbLine
 10
688.8129
 20
365.5385
 30
0.0
 11
689.2288
 21
365.369
 31
0.0
  0
LINE
  5
2B8
100
AcDbEntity
  8
____
  6
CONTINUOUS
 62
     7
100
AcDbLine
 10
688.393
 20
365.6956
 30
0.0
 11
688.8129
 21
365.5385
 31
0.0
  0
LINE
  5
2B9
100
AcDbEntity
  8
____
  6
CONTINUOUS
 62
     7
100
AcDbLine
 10
687.9693
 20
365.84
 30
0.0
 11
688.393
 21
365.6956
 31
0.0
  0
LINE
  5
2BA
100
AcDbEntity
  8
____
  6
CONTINUOUS
 62
     7
100
AcDbLine
 10
687.5416
 20
365.9719
 30
0.0
 11
687.9693
 21
365.84
 31
0.0
  0
LINE
  5
2BB
100
AcDbEntity
  8
____
  6
CONTINUOUS
 62
     7
100
AcDbLine
 10
687.11
 20
366.0912
 30
0.0
 11
687.5416
 21
365.9719
 31
0.0
  0
LINE
  5
2BC
100
AcDbEntity
  8
____
  6
CONTINUOUS
 62
     7
100
AcDbLine
 10
686.6744
 20
366.198
 30
0.0
 11
687.11
 21
366.0912
 31
0.0
  0
LINE
  5
2BD
100
AcDbEntity
  8
____
  6
CONTINUOUS
 62
     7
100
AcDbLine
 10
686.235
 20
366.2921
 30
0.0
 11
686.6744
 21
366.198
 31
0.0
  0
LINE
  5
2BE
100
AcDbEntity
  8
____
  6
CONTINUOUS
 62
     7
100
AcDbLine
 10
685.7916
 20
366.3738
 30
0.0
 11
686.235
 21
366.2921
 31
0.0
  0
LINE
  5
2BF
100
AcDbEntity
  8
____
  6
CONTINUOUS
 62
     7
100
AcDbLine
 10
685.3443
 20
366.4429
 30
0.0
 11
685.7916
 21
366.3738
 31
0.0
  0
LINE
  5
2C0
100
AcDbEntity
  8
____
  6
CONTINUOUS
 62
     7
100
AcDbLine
 10
684.893
 20
366.4995
 30
0.0
 11
685.3443
 21
366.4429
 31
0.0
  0
LINE
  5
2C1
100
AcDbEntity
  8
____
  6
CONTINUOUS
 62
     7
100
AcDbLine
 10
684.4379
 20
366.5434
 30
0.0
 11
684.893
 21
366.4995
 31
0.0
  0
LINE
  5
2C2
100
AcDbEntity
  8
____
  6
CONTINUOUS
 62
     7
100
AcDbLine
 10
683.9788
 20
366.5748
 30
0.0
 11
684.4379
 21
366.5434
 31
0.0
  0
LINE
  5
2C3
100
AcDbEntity
  8
____
  6
CONTINUOUS
 62
     7
100
AcDbLine
 10
683.5158
 20
366.5937
 30
0.0
 11
683.9788
 21
366.5748
 31
0.0
  0
LINE
  5
2C4
100
AcDbEntity
  8
____
  6
CONTINUOUS
 62
     7
100
AcDbLine
 10
683.0487
 20
366.6
 30
0.0
 11
683.5158
 21
366.5937
 31
0.0
  0
LINE
  5
2C5
100
AcDbEntity
  8
____
  6
CONTINUOUS
 62
     7
100
AcDbLine
 10
682.5818
 20
366.5937
 30
0.0
 11
683.0487
 21
366.6
 31
0.0
  0
LINE
  5
2C6
100
AcDbEntity
  8
____
  6
CONTINUOUS
 62
     7
100
AcDbLine
 10
682.1188
 20
366.5748
 30
0.0
 11
682.5818
 21
366.5937
 31
0.0
  0
LINE
  5
2C7
100
AcDbEntity
  8
____
  6
CONTINUOUS
 62
     7
100
AcDbLine
 10
681.6597
 20
366.5434
 30
0.0
 11
682.1188
 21
366.5748
 31
0.0
  0
LINE
  5
2C8
100
AcDbEntity
  8
____
  6
CONTINUOUS
 62
     7
100
AcDbLine
 10
681.2045
 20
366.4995
 30
0.0
 11
681.6597
 21
366.5434
 31
0.0
  0
LINE
  5
2C9
100
AcDbEntity
  8
____
  6
CONTINUOUS
 62
     7
100
AcDbLine
 10
680.7533
 20
366.4429
 30
0.0
 11
681.2045
 21
366.4995
 31
0.0
  0
LINE
  5
2CA
100
AcDbEntity
  8
____
  6
CONTINUOUS
 62
     7
100
AcDbLine
 10
680.306
 20
366.3738
 30
0.0
 11
680.7533
 21
366.4429
 31
0.0
  0
LINE
  5
2CB
100
AcDbEntity
  8
____
  6
CONTINUOUS
 62
     7
100
AcDbLine
 10
679.8626
 20
366.2921
 30
0.0
 11
680.306
 21
366.3738
 31
0.0
  0
LINE
  5
2CC
100
AcDbEntity
  8
____
  6
CONTINUOUS
 62
     7
100
AcDbLine
 10
679.4231
 20
366.198
 30
0.0
 11
679.8626
 21
366.2921
 31
0.0
  0
LINE
  5
2CD
100
AcDbEntity
  8
____
  6
CONTINUOUS
 62
     7
100
AcDbLine
 10
678.9876
 20
366.0912
 30
0.0
 11
679.4231
 21
366.198
 31
0.0
  0
LINE
  5
2CE
100
AcDbEntity
  8
____
  6
CONTINUOUS
 62
     7
100
AcDbLine
 10
678.556
 20
365.9719
 30
0.0
 11
678.9876
 21
366.0912
 31
0.0
  0
LINE
  5
2CF
100
AcDbEntity
  8
____
  6
CONTINUOUS
 62
     7
100
AcDbLine
 10
678.1283
 20
365.84
 30
0.0
 11
678.556
 21
365.9719
 31
0.0
  0
LINE
  5
2D0
100
AcDbEntity
  8
____
  6
CONTINUOUS
 62
     7
100
AcDbLine
 10
677.7045
 20
365.6956
 30
0.0
 11
678.1283
 21
365.84
 31
0.0
  0
LINE
  5
2D1
100
AcDbEntity
  8
____
  6
CONTINUOUS
 62
     7
100
AcDbLine
 10
677.2847
 20
365.5385
 30
0.0
 11
677.7045
 21
365.6956
 31
0.0
  0
LINE
  5
2D2
100
AcDbEntity
  8
____
  6
CONTINUOUS
 62
     7
100
AcDbLine
 10
676.8688
 20
365.369
 30
0.0
 11
677.2847
 21
365.5385
 31
0.0
  0
LINE
  5
2D3
100
AcDbEntity
  8
____
  6
CONTINUOUS
 62
     7
100
AcDbLine
 10
676.4568
 20
365.1869
 30
0.0
 11
676.8688
 21
365.369
 31
0.0
  0
LINE
  5
2D4
100
AcDbEntity
  8
____
  6
CONTINUOUS
 62
     7
100
AcDbLine
 10
676.0487
 20
364.9923
 30
0.0
 11
676.4568
 21
365.1869
 31
0.0
  0
LINE
  5
2D5
100
AcDbEntity
  8
____
  6
CONTINUOUS
 62
     7
100
AcDbLine
 10
675.6481
 20
364.7867
 30
0.0
 11
676.0487
 21
364.9923
 31
0.0
  0
LINE
  5
2D6
100
AcDbEntity
  8
____
  6
CONTINUOUS
 62
     7
100
AcDbLine
 10
675.2581
 20
364.5719
 30
0.0
 11
675.6481
 21
364.7867
 31
0.0
  0
LINE
  5
2D7
100
AcDbEntity
  8
____
  6
CONTINUOUS
 62
     7
100
AcDbLine
 10
674.8789
 20
364.3479
 30
0.0
 11
675.2581
 21
364.5719
 31
0.0
  0
LINE
  5
2D8
100
AcDbEntity
  8
____
  6
CONTINUOUS
 62
     7
100
AcDbLine
 10
674.5103
 20
364.1148
 30
0.0
 11
674.8789
 21
364.3479
 31
0.0
  0
LINE
  5
2D9
100
AcDbEntity
  8
____
  6
CONTINUOUS
 62
     7
100
AcDbLine
 10
674.1525
 20
363.8724
 30
0.0
 11
674.5103
 21
364.1148
 31
0.0
  0
LINE
  5
2DA
100
AcDbEntity
  8
____
  6
CONTINUOUS
 62
     7
100
AcDbLine
 10
673.8054
 20
363.6209
 30
0.0
 11
674.1525
 21
363.8724
 31
0.0
  0
LINE
  5
2DB
100
AcDbEntity
  8
____
  6
CONTINUOUS
 62
     7
100
AcDbLine
 10
673.469
 20
363.3601
 30
0.0
 11
673.8054
 21
363.6209
 31
0.0
  0
LINE
  5
2DC
100
AcDbEntity
  8
____
  6
CONTINUOUS
 62
     7
100
AcDbLine
 10
673.1433
 20
363.0903
 30
0.0
 11
673.469
 21
363.3601
 31
0.0
  0
LINE
  5
2DD
100
AcDbEntity
  8
____
  6
CONTINUOUS
 62
     7
100
AcDbLine
 10
672.8285
 20
362.8111
 30
0.0
 11
673.1433
 21
363.0903
 31
0.0
  0
LINE
  5
2DE
100
AcDbEntity
  8
____
  6
CONTINUOUS
 62
     7
100
AcDbLine
 10
672.5243
 20
362.5229
 30
0.0
 11
672.8285
 21
362.8111
 31
0.0
  0
LINE
  5
2DF
100
AcDbEntity
  8
____
  6
CONTINUOUS
 62
     7
100
AcDbLine
 10
672.2309
 20
362.2253
 30
0.0
 11
672.5243
 21
362.5229
 31
0.0
  0
LINE
  5
2E0
100
AcDbEntity
  8
____
  6
CONTINUOUS
 62
     7
100
AcDbLine
 10
671.9481
 20
361.9187
 30
0.0
 11
672.2309
 21
362.2253
 31
0.0
  0
LINE
  5
2E1
100
AcDbEntity
  8
____
  6
CONTINUOUS
 62
     7
100
AcDbLine
 10
671.6761
 20
361.6027
 30
0.0
 11
671.9481
 21
361.9187
 31
0.0
  0
LINE
  5
2E2
100
AcDbEntity
  8
____
  6
CONTINUOUS
 62
     7
100
AcDbLine
 10
671.4148
 20
361.2777
 30
0.0
 11
671.6761
 21
361.6027
 31
0.0
  0
LINE
  5
2E3
100
AcDbEntity
  8
____
  6
CONTINUOUS
 62
     7
100
AcDbLine
 10
671.1643
 20
360.9434
 30
0.0
 11
671.4148
 21
361.2777
 31
0.0
  0
LINE
  5
2E4
100
AcDbEntity
  8
____
  6
CONTINUOUS
 62
     7
100
AcDbLine
 10
670.9244
 20
360.6
 30
0.0
 11
671.1643
 21
360.9434
 31
0.0
  0
LINE
  5
2E5
100
AcDbEntity
  8
____
  6
CONTINUOUS
 62
     7
100
AcDbLine
 10
670.6974
 20
360.2501
 30
0.0
 11
670.9244
 21
360.6
 31
0.0
  0
POLYLINE
  5
2E6
100
AcDbEntity
  8
____
  6
CONTINUOUS
 62
     7
100
AcDb2dPolyline
 66
     1
 10
0.0
 20
0.0
 30
0.0
 70
   128
  0
VERTEX
  5
536
100
AcDbEntity
  8
____
  6
CONTINUOUS
 62
     7
100
AcDbVertex
100
AcDb2dVertex
 10
658.8
 20
332.0
 30
0.0
  0
VERTEX
  5
537
100
AcDbEntity
  8
____
  6
CONTINUOUS
 62
     7
100
AcDbVertex
100
AcDb2dVertex
 10
658.8
 20
360.0
 30
0.0
  0
VERTEX
  5
538
100
AcDbEntity
  8
____
  6
CONTINUOUS
 62
     7
100
AcDbVertex
100
AcDb2dVertex
 10
673.8
 20
360.0
 30
0.0
  0
SEQEND
  5
539
100
AcDbEntity
  8
____
  6
CONTINUOUS
 62
     7
  0
POLYLINE
  5
2E7
100
AcDbEntity
  8
____
  6
CONTINUOUS
 62
     7
100
AcDb2dPolyline
 66
     1
 10
0.0
 20
0.0
 30
0.0
 70
   128
  0
VERTEX
  5
53A
100
AcDbEntity
  8
____
  6
CONTINUOUS
 62
     7
100
AcDbVertex
100
AcDb2dVertex
 10
696.8
 20
353.0
 30
0.0
  0
VERTEX
  5
53B
100
AcDbEntity
  8
____
  6
CONTINUOUS
 62
     7
100
AcDbVertex
100
AcDb2dVertex
 10
696.8
 20
346.0
 30
0.0
 42
-0.414214
  0
VERTEX
  5
53C
100
AcDbEntity
  8
____
  6
CONTINUOUS
 62
     7
100
AcDbVertex
100
AcDb2dVertex
 10
682.8
 20
332.0
 30
0.0
  0
VERTEX
  5
53D
100
AcDbEntity
  8
____
  6
CONTINUOUS
 62
     7
100
AcDbVertex
100
AcDb2dVertex
 10
658.8
 20
332.0
 30
0.0
  0
SEQEND
  5
53E
100
AcDbEntity
  8
____
  6
CONTINUOUS
 62
     7
  0
POLYLINE
  5
2E8
100
AcDbEntity
  8
____
  6
CONTINUOUS
 62
     7
100
AcDb2dPolyline
 66
     1
 10
0.0
 20
0.0
 30
0.0
 70
     1
 75
     5
  0
VERTEX
  5
2E9
100
AcDbEntity
  8
____
  6
CONTINUOUS
 62
     7
100
AcDbVertex
100
AcDb2dVertex
 10
618.8
 20
368.0
 30
0.0
  0
VERTEX
  5
2EA
100
AcDbEntity
  8
____
  6
CONTINUOUS
 62
     7
100
AcDbVertex
100
AcDb2dVertex
 10
583.8
 20
368.0
 30
0.0
  0
VERTEX
  5
2EB
100
AcDbEntity
  8
____
  6
CONTINUOUS
 62
     7
100
AcDbVertex
100
AcDb2dVertex
 10
583.8
 20
313.0
 30
0.0
  0
VERTEX
  5
2EC
100
AcDbEntity
  8
____
  6
CONTINUOUS
 62
     7
100
AcDbVertex
100
AcDb2dVertex
 10
585.8
 20
313.0
 30
0.0
  0
VERTEX
  5
2ED
100
AcDbEntity
  8
____
  6
CONTINUOUS
 62
     7
100
AcDbVertex
100
AcDb2dVertex
 10
585.8
 20
328.0
 30
0.0
  0
VERTEX
  5
2EE
100
AcDbEntity
  8
____
  6
CONTINUOUS
 62
     7
100
AcDbVertex
100
AcDb2dVertex
 10
618.8
 20
328.0
 30
0.0
  0
SEQEND
  5
2EF
100
AcDbEntity
  8
____
  6
CONTINUOUS
  0
LINE
  5
2F0
100
AcDbEntity
  8
____
  6
CONTINUOUS
 62
     7
100
AcDbLine
 10
675.8
 20
346.0
 30
0.0
 11
569.8
 21
346.0
 31
0.0
  0
POLYLINE
  5
2F1
100
AcDbEntity
  8
____
  6
CONTINUOUS
 62
     7
100
AcDb2dPolyline
 66
     1
 10
0.0
 20
0.0
 30
0.0
 70
   129
  0
VERTEX
  5
53F
100
AcDbEntity
  8
____
  6
CONTINUOUS
 62
     7
100
AcDbVertex
100
AcDb2dVertex
 10
603.8
 20
945.0
 30
0.0
 42
0.414214
  0
VERTEX
  5
540
100
AcDbEntity
  8
____
  6
CONTINUOUS
 62
     7
100
AcDbVertex
100
AcDb2dVertex
 10
598.8
 20
950.0
 30
0.0
  0
VERTEX
  5
541
100
AcDbEntity
  8
____
  6
CONTINUOUS
 62
     7
100
AcDbVertex
100
AcDb2dVertex
 10
583.8
 20
950.0
 30
0.0
  0
VERTEX
  5
542
100
AcDbEntity
  8
____
  6
CONTINUOUS
 62
     7
100
AcDbVertex
100
AcDb2dVertex
 10
583.8
 20
370.0
 30
0.0
  0
VERTEX
  5
543
100
AcDbEntity
  8
____
  6
CONTINUOUS
 62
     7
100
AcDbVertex
100
AcDb2dVertex
 10
598.8
 20
370.0
 30
0.0
 42
0.414214
  0
VERTEX
  5
544
100
AcDbEntity
  8
____
  6
CONTINUOUS
 62
     7
100
AcDbVertex
100
AcDb2dVertex
 10
603.8
 20
375.0
 30
0.0
  0
VERTEX
  5
545
100
AcDbEntity
  8
____
  6
CONTINUOUS
 62
     7
100
AcDbVertex
100
AcDb2dVertex
 10
603.8
 20
945.0
 30
0.0
  0
SEQEND
  5
546
100
AcDbEntity
  8
____
  6
CONTINUOUS
 62
     7
  0
POLYLINE
  5
2F2
100
AcDbEntity
  8
____
  6
CONTINUOUS
 62
     7
100
AcDb2dPolyline
 66
     1
 10
0.0
 20
0.0
 30
0.0
 70
   129
  0
VERTEX
  5
547
100
AcDbEntity
  8
____
  6
CONTINUOUS
 62
     7
100
AcDbVertex
100
AcDb2dVertex
 10
617.8
 20
660.0
 30
0.0
 42
-0.414214
  0
VERTEX
  5
548
100
AcDbEntity
  8
____
  6
CONTINUOUS
 62
     7
100
AcDbVertex
100
AcDb2dVertex
 10
631.8
 20
674.0
 30
0.0
 42
-0.414214
  0
VERTEX
  5
549
100
AcDbEntity
  8
____
  6
CONTINUOUS
 62
     7
100
AcDbVertex
100
AcDb2dVertex
 10
645.8
 20
660.0
 30
0.0
 42
-0.414214
  0
VERTEX
  5
54A
100
AcDbEntity
  8
____
  6
CONTINUOUS
 62
     7
100
AcDbVertex
100
AcDb2dVertex
 10
631.8
 20
646.0
 30
0.0
 42
-0.414214
  0
VERTEX
  5
54B
100
AcDbEntity
  8
____
  6
CONTINUOUS
 62
     7
100
AcDbVertex
100
AcDb2dVertex
 10
617.8
 20
660.0
 30
0.0
 42
-0.414214
  0
SEQEND
  5
54C
100
AcDbEntity
  8
____
  6
CONTINUOUS
 62
     7
  0
ARC
  5
2F3
100
AcDbEntity
  8
____
  6
CONTINUOUS
 62
     7
100
AcDbCircle
 10
1234.3
 20
503.5
 30
0.0
 40
35.0322
100
AcDbArc
 50
253.025513
 51
285.419492
  0
POLYLINE
  5
2F4
100
AcDbEntity
  8
____
  6
CONTINUOUS
 62
     7
100
AcDb2dPolyline
 66
     1
 10
0.0
 20
0.0
 30
0.0
 70
   129
  0
VERTEX
  5
54D
100
AcDbEntity
  8
____
  6
CONTINUOUS
 62
     7
100
AcDbVertex
100
AcDb2dVertex
 10
1208.8
 20
919.0
 30
0.0
  0
VERTEX
  5
54E
100
AcDbEntity
  8
____
  6
CONTINUOUS
 62
     7
100
AcDbVertex
100
AcDb2dVertex
 10
1212.0101
 20
920.5286
 30
0.0
 42
-0.111566
  0
VERTEX
  5
54F
100
AcDbEntity
  8
____
  6
CONTINUOUS
 62
     7
100
AcDbVertex
100
AcDb2dVertex
 10
1216.3094
 20
921.5
 30
0.0
  0
VERTEX
  5
550
100
AcDbEntity
  8
____
  6
CONTINUOUS
 62
     7
100
AcDbVertex
100
AcDb2dVertex
 10
1251.2906
 20
921.5
 30
0.0
 42
-0.111567
  0
VERTEX
  5
551
100
AcDbEntity
  8
____
  6
CONTINUOUS
 62
     7
100
AcDbVertex
100
AcDb2dVertex
 10
1255.5899
 20
920.5286
 30
0.0
  0
VERTEX
  5
552
100
AcDbEntity
  8
____
  6
CONTINUOUS
 62
     7
100
AcDbVertex
100
AcDb2dVertex
 10
1258.8
 20
919.0
 30
0.0
  0
VERTEX
  5
553
100
AcDbEntity
  8
____
  6
CONTINUOUS
 62
     7
100
AcDbVertex
100
AcDb2dVertex
 10
1258.8
 20
879.0
 30
0.0
  0
VERTEX
  5
554
100
AcDbEntity
  8
____
  6
CONTINUOUS
 62
     7
100
AcDbVertex
100
AcDb2dVertex
 10
1255.5899
 20
877.4714
 30
0.0
 42
-0.111566
  0
VERTEX
  5
555
100
AcDbEntity
  8
____
  6
CONTINUOUS
 62
     7
100
AcDbVertex
100
AcDb2dVertex
 10
1251.2906
 20
876.5
 30
0.0
  0
VERTEX
  5
556
100
AcDbEntity
  8
____
  6
CONTINUOUS
 62
     7
100
AcDbVertex
100
AcDb2dVertex
 10
1248.3
 20
876.5
 30
0.0
  0
VERTEX
  5
557
100
AcDbEntity
  8
____
  6
CONTINUOUS
 62
     7
100
AcDbVertex
100
AcDb2dVertex
 10
1248.3
 20
846.5
 30
0.0
  0
VERTEX
  5
558
100
AcDbEntity
  8
____
  6
CONTINUOUS
 62
     7
100
AcDbVertex
100
AcDb2dVertex
 10
1219.3
 20
846.5
 30
0.0
  0
VERTEX
  5
559
100
AcDbEntity
  8
____
  6
CONTINUOUS
 62
     7
100
AcDbVertex
100
AcDb2dVertex
 10
1219.3
 20
876.5
 30
0.0
  0
VERTEX
  5
55A
100
AcDbEntity
  8
____
  6
CONTINUOUS
 62
     7
100
AcDbVertex
100
AcDb2dVertex
 10
1216.3094
 20
876.5
 30
0.0
 42
-0.111567
  0
VERTEX
  5
55B
100
AcDbEntity
  8
____
  6
CONTINUOUS
 62
     7
100
AcDbVertex
100
AcDb2dVertex
 10
1212.0101
 20
877.4714
 30
0.0
  0
VERTEX
  5
55C
100
AcDbEntity
  8
____
  6
CONTINUOUS
 62
     7
100
AcDbVertex
100
AcDb2dVertex
 10
1208.8
 20
879.0
 30
0.0
  0
VERTEX
  5
55D
100
AcDbEntity
  8
____
  6
CONTINUOUS
 62
     7
100
AcDbVertex
100
AcDb2dVertex
 10
1208.8
 20
919.0
 30
0.0
  0
SEQEND
  5
55E
100
AcDbEntity
  8
____
  6
CONTINUOUS
 62
     7
  0
ARC
  5
2F5
100
AcDbEntity
  8
____
  6
CONTINUOUS
 62
     7
100
AcDbCircle
 10
1234.3
 20
844.5
 30
0.0
 40
35.0322
100
AcDbArc
 50
74.580508
 51
106.974487
  0
LINE
  5
2F6
100
AcDbEntity
  8
____
  6
VECTORWORKS_DASH_06
 62
     7
100
AcDbLine
 10
1233.8
 20
436.5
 30
0.0
 11
1233.8
 21
911.5
 31
0.0
  0
LINE
  5
2F7
100
AcDbEntity
  8
____
  6
CONTINUOUS
 62
     7
100
AcDbLine
 10
-1626.2
 20
-1090.0
 30
0.0
 11
-226.2
 21
-1090.0
 31
0.0
  0
LINE
  5
2F8
100
AcDbEntity
  8
____
  6
VECTORWORKS_DASH_09
 62
     7
100
AcDbLine
 10
-1031.2
 20
740.0
 30
0.0
 11
-1031.2
 21
580.0
 31
0.0
  0
LINE
  5
2F9
100
AcDbEntity
  8
____
  6
VECTORWORKS_DASH_02
 62
     7
100
AcDbLine
 10
-526.2
 20
665.0
 30
0.0
 11
-731.2
 21
665.0
 31
0.0
  0
LINE
  5
2FA
100
AcDbEntity
  8
____
  6
VECTORWORKS_DASH_02
 62
     7
100
AcDbLine
 10
-526.2
 20
655.0
 30
0.0
 11
-731.2
 21
655.0
 31
0.0
  0
POLYLINE
  5
2FB
100
AcDbEntity
  8
____
  6
CONTINUOUS
 62
     7
100
AcDb2dPolyline
 66
     1
 10
0.0
 20
0.0
 30
0.0
 70
   129
  0
VERTEX
  5
55F
100
AcDbEntity
  8
____
  6
CONTINUOUS
 62
     7
100
AcDbVertex
100
AcDb2dVertex
 10
590.8
 20
810.0
 30
0.0
 42
-0.414214
  0
VERTEX
  5
560
100
AcDbEntity
  8
____
  6
CONTINUOUS
 62
     7
100
AcDbVertex
100
AcDb2dVertex
 10
593.8
 20
813.0
 30
0.0
 42
-0.414214
  0
VERTEX
  5
561
100
AcDbEntity
  8
____
  6
CONTINUOUS
 62
     7
100
AcDbVertex
100
AcDb2dVertex
 10
596.8
 20
810.0
 30
0.0
 42
-0.414214
  0
VERTEX
  5
562
100
AcDbEntity
  8
____
  6
CONTINUOUS
 62
     7
100
AcDbVertex
100
AcDb2dVertex
 10
593.8
 20
807.0
 30
0.0
 42
-0.414214
  0
VERTEX
  5
563
100
AcDbEntity
  8
____
  6
CONTINUOUS
 62
     7
100
AcDbVertex
100
AcDb2dVertex
 10
590.8
 20
810.0
 30
0.0
 42
-0.414214
  0
SEQEND
  5
564
100
AcDbEntity
  8
____
  6
CONTINUOUS
 62
     7
  0
POLYLINE
  5
2FC
100
AcDbEntity
  8
____
  6
CONTINUOUS
 62
     7
100
AcDb2dPolyline
 66
     1
 10
0.0
 20
0.0
 30
0.0
 70
   129
  0
VERTEX
  5
565
100
AcDbEntity
  8
____
  6
CONTINUOUS
 62
     7
100
AcDbVertex
100
AcDb2dVertex
 10
590.8
 20
510.0
 30
0.0
 42
-0.414214
  0
VERTEX
  5
566
100
AcDbEntity
  8
____
  6
CONTINUOUS
 62
     7
100
AcDbVertex
100
AcDb2dVertex
 10
593.8
 20
513.0
 30
0.0
 42
-0.414214
  0
VERTEX
  5
567
100
AcDbEntity
  8
____
  6
CONTINUOUS
 62
     7
100
AcDbVertex
100
AcDb2dVertex
 10
596.8
 20
510.0
 30
0.0
 42
-0.414214
  0
VERTEX
  5
568
100
AcDbEntity
  8
____
  6
CONTINUOUS
 62
     7
100
AcDbVertex
100
AcDb2dVertex
 10
593.8
 20
507.0
 30
0.0
 42
-0.414214
  0
VERTEX
  5
569
100
AcDbEntity
  8
____
  6
CONTINUOUS
 62
     7
100
AcDbVertex
100
AcDb2dVertex
 10
590.8
 20
510.0
 30
0.0
 42
-0.414214
  0
SEQEND
  5
56A
100
AcDbEntity
  8
____
  6
CONTINUOUS
 62
     7
  0
LINE
  5
2FD
100
AcDbEntity
  8
____
  6
CONTINUOUS
 62
     7
100
AcDbLine
 10
593.8
 20
825.0
 30
0.0
 11
593.8
 21
795.0
 31
0.0
  0
LINE
  5
2FE
100
AcDbEntity
  8
____
  6
CONTINUOUS
 62
     7
100
AcDbLine
 10
608.8
 20
810.0
 30
0.0
 11
578.8
 21
810.0
 31
0.0
  0
LINE
  5
2FF
100
AcDbEntity
  8
____
  6
CONTINUOUS
 62
     7
100
AcDbLine
 10
593.8
 20
525.0
 30
0.0
 11
593.8
 21
495.0
 31
0.0
  0
LINE
  5
300
100
AcDbEntity
  8
____
  6
CONTINUOUS
 62
     7
100
AcDbLine
 10
608.8
 20
510.0
 30
0.0
 11
578.8
 21
510.0
 31
0.0
  0
POLYLINE
  5
301
100
AcDbEntity
  8
____
  6
CONTINUOUS
 62
     7
100
AcDb2dPolyline
 66
     1
 10
0.0
 20
0.0
 30
0.0
 70
   129
  0
VERTEX
  5
56B
100
AcDbEntity
  8
____
  6
CONTINUOUS
 62
     7
100
AcDbVertex
100
AcDb2dVertex
 10
-1955.392
 20
1360.0
 30
0.0
  0
VERTEX
  5
56C
100
AcDbEntity
  8
____
  6
CONTINUOUS
 62
     7
100
AcDbVertex
100
AcDb2dVertex
 10
1954.608
 20
1360.0
 30
0.0
  0
VERTEX
  5
56D
100
AcDbEntity
  8
____
  6
CONTINUOUS
 62
     7
100
AcDbVertex
100
AcDb2dVertex
 10
1954.608
 20
-1360.0
 30
0.0
  0
VERTEX
  5
56E
100
AcDbEntity
  8
____
  6
CONTINUOUS
 62
     7
100
AcDbVertex
100
AcDb2dVertex
 10
-1955.392
 20
-1360.0
 30
0.0
  0
VERTEX
  5
56F
100
AcDbEntity
  8
____
  6
CONTINUOUS
 62
     7
100
AcDbVertex
100
AcDb2dVertex
 10
-1955.392
 20
1360.0
 30
0.0
  0
SEQEND
  5
570
100
AcDbEntity
  8
____
  6
CONTINUOUS
 62
     7
  0
POLYLINE
  5
302
100
AcDbEntity
  8
____
  6
CONTINUOUS
 62
     7
100
AcDb2dPolyline
 66
     1
 10
0.0
 20
0.0
 30
0.0
 70
   129
  0
VERTEX
  5
571
100
AcDbEntity
  8
____
  6
CONTINUOUS
 62
     7
100
AcDbVertex
100
AcDb2dVertex
 10
-1955.632
 20
-1220.0
 30
0.0
  0
VERTEX
  5
572
100
AcDbEntity
  8
____
  6
CONTINUOUS
 62
     7
100
AcDbVertex
100
AcDb2dVertex
 10
1954.368
 20
-1220.0
 30
0.0
  0
VERTEX
  5
573
100
AcDbEntity
  8
____
  6
CONTINUOUS
 62
     7
100
AcDbVertex
100
AcDb2dVertex
 10
1954.368
 20
-1360.0
 30
0.0
  0
VERTEX
  5
574
100
AcDbEntity
  8
____
  6
CONTINUOUS
 62
     7
100
AcDbVertex
100
AcDb2dVertex
 10
-1955.632
 20
-1360.0
 30
0.0
  0
VERTEX
  5
575
100
AcDbEntity
  8
____
  6
CONTINUOUS
 62
     7
100
AcDbVertex
100
AcDb2dVertex
 10
-1955.632
 20
-1220.0
 30
0.0
  0
SEQEND
  5
576
100
AcDbEntity
  8
____
  6
CONTINUOUS
 62
     7
  0
LINE
  5
303
100
AcDbEntity
  8
____
  6
CONTINUOUS
 62
     7
100
AcDbLine
 10
624.368
 20
-1360.0
 30
0.0
 11
1954.368
 21
-1360.0
 31
0.0
  0
LINE
  5
304
100
AcDbEntity
  8
____
  6
CONTINUOUS
 62
     7
100
AcDbLine
 10
1154.368
 20
-1360.0
 30
0.0
 11
1154.368
 21
-1220.0
 31
0.0
  0
LINE
  5
305
100
AcDbEntity
  8
____
  6
CONTINUOUS
 62
     7
100
AcDbLine
 10
954.368
 20
-1360.0
 30
0.0
 11
954.368
 21
-1220.0
 31
0.0
  0
LINE
  5
306
100
AcDbEntity
  8
____
  6
CONTINUOUS
 62
     7
100
AcDbLine
 10
504.368
 20
-1360.0
 30
0.0
 11
504.368
 21
-1220.0
 31
0.0
  0
LINE
  5
307
100
AcDbEntity
  8
____
  6
CONTINUOUS
 62
     7
100
AcDbLine
 10
-545.632
 20
-1360.0
 30
0.0
 11
-545.632
 21
-1220.0
 31
0.0
  0
LINE
  5
308
100
AcDbEntity
  8
____
  6
CONTINUOUS
 62
     7
100
AcDbLine
 10
-945.632
 20
-1268.94
 30
0.0
 11
-545.632
 21
-1268.94
 31
0.0
  0
LINE
  5
309
100
AcDbEntity
  8
____
  6
CONTINUOUS
 62
     7
100
AcDbLine
 10
-945.632
 20
-1313.33
 30
0.0
 11
-545.632
 21
-1313.33
 31
0.0
  0
TEXT
  5
30A
100
AcDbEntity
  8
____
 62
     7
100
AcDbText
 10
-540.632
 20
-1253.3522
 30
0.0
 40
28.2222
  1
品　名
 11
-540.632
 21
-1225.13
 31
0.0
100
AcDbText
 73
     3
  0
TEXT
  5
30B
100
AcDbEntity
  8
____
 62
     7
100
AcDbText
 10
514.368
 20
-1258.3522
 30
0.0
 40
28.2222
  1
形　式
 11
514.368
 21
-1230.13
 31
0.0
100
AcDbText
 73
     3
  0
TEXT
  5
30C
100
AcDbEntity
  8
____
 62
     7
100
AcDbText
 10
959.368
 20
-1258.3522
 30
0.0
 40
28.2222
  1
尺　度
 11
959.368
 21
-1230.13
 31
0.0
100
AcDbText
 73
     3
  0
TEXT
  5
30D
100
AcDbEntity
  8
____
 62
     7
100
AcDbText
 10
1169.368
 20
-1258.3522
 30
0.0
 40
28.2222
  1
図　番
 11
1169.368
 21
-1230.13
 31
0.0
100
AcDbText
 73
     3
  0
LINE
  5
30E
100
AcDbEntity
  8
____
  6
CONTINUOUS
 62
     7
100
AcDbLine
 10
-945.632
 20
-1360.0
 30
0.0
 11
-945.632
 21
-1220.0
 31
0.0
  0
TEXT
  5
30F
100
AcDbEntity
  8
____
 62
     7
100
AcDbText
 10
-935.632
 20
-1258.3522
 30
0.0
 40
28.2222
  1
検  図
 11
-935.632
 21
-1230.13
 31
0.0
100
AcDbText
 73
     3
  0
TEXT
  5
310
100
AcDbEntity
  8
____
 62
     7
100
AcDbText
 10
-935.632
 20
-1299.9122
 30
0.0
 40
28.2222
  1
担  当
 11
-935.632
 21
-1271.69
 31
0.0
100
AcDbText
 73
     3
  0
TEXT
  5
311
100
AcDbEntity
  8
____
 62
     7
100
AcDbText
 10
-935.632
 20
-1345.7822
 30
0.0
 40
28.2222
  1
年月日
 11
-935.632
 21
-1317.56
 31
0.0
100
AcDbText
 73
     3
  0
TEXT
  5
312
100
AcDbEntity
  8
____
 62
     7
100
AcDbText
 10
-758.332
 20
-1345.5894
 30
0.0
 40
25.4364
  1
97.3.4
 11
-758.332
 21
-1320.153
 31
0.0
100
AcDbText
 73
     3
  0
TEXT
  5
313
100
AcDbEntity
  8
____
 62
     7
100
AcDbText
 10
987.08
 20
-1329.009
 30
0.0
 40
50.8
  1
1/10
 11
987.08
 21
-1278.209
 31
0.0
100
AcDbText
 73
     3
  0
TEXT
  5
314
100
AcDbEntity
  8
____
 62
     7
100
AcDbText
 10
1347.275
 20
-1329.611
 30
0.0
 40
72.985
  1
A320-092
 11
1347.275
 21
-1256.626
 31
0.0
100
AcDbText
 73
     3
  0
TEXT
  5
315
100
AcDbEntity
  8
____
 62
     7
100
AcDbText
 10
-309.7318
 20
-1311.5599
 30
0.0
 40
52.8454
  1
送り込みテーブル
 11
-309.7318
 21
-1258.7145
 31
0.0
100
AcDbText
 73
     3
  0
TEXT
  5
316
100
AcDbEntity
  8
____
 62
     7
100
AcDbText
 10
616.1436
 20
-1318.8917
 30
0.0
 40
50.1772
  1
AT 90 L
 11
616.1436
 21
-1268.7145
 31
0.0
100
AcDbText
 73
     3
  0
POLYLINE
  5
317
100
AcDbEntity
  8
____
  6
CONTINUOUS
 62
     7
100
AcDb2dPolyline
 66
     1
 10
0.0
 20
0.0
 30
0.0
 75
     5
  0
VERTEX
  5
318
100
AcDbEntity
  8
____
  6
CONTINUOUS
 62
     7
100
AcDbVertex
100
AcDb2dVertex
 10
1258.8
 20
880.0
 30
0.0
  0
VERTEX
  5
319
100
AcDbEntity
  8
____
  6
CONTINUOUS
 62
     7
100
AcDbVertex
100
AcDb2dVertex
 10
1331.8
 20
880.0
 30
0.0
  0
VERTEX
  5
31A
100
AcDbEntity
  8
____
  6
CONTINUOUS
 62
     7
100
AcDbVertex
100
AcDb2dVertex
 10
1331.8
 20
918.0
 30
0.0
  0
VERTEX
  5
31B
100
AcDbEntity
  8
____
  6
CONTINUOUS
 62
     7
100
AcDbVertex
100
AcDb2dVertex
 10
1258.8
 20
918.0
 30
0.0
  0
SEQEND
  5
31C
100
AcDbEntity
  8
____
  6
CONTINUOUS
  0
LINE
  5
31D
100
AcDbEntity
  8
____
  6
CONTINUOUS
 62
     7
100
AcDbLine
 10
1221.3
 20
501.5
 30
0.0
 11
1221.3
 21
846.5
 31
0.0
  0
LINE
  5
31E
100
AcDbEntity
  8
____
  6
CONTINUOUS
 62
     7
100
AcDbLine
 10
1246.3
 20
846.5
 30
0.0
 11
1246.3
 21
501.5
 31
0.0
  0
POLYLINE
  5
31F
100
AcDbEntity
  8
____
  6
CONTINUOUS
 62
     7
100
AcDb2dPolyline
 66
     1
 10
0.0
 20
0.0
 30
0.0
 70
   129
  0
VERTEX
  5
577
100
AcDbEntity
  8
____
  6
CONTINUOUS
 62
     7
100
AcDbVertex
100
AcDb2dVertex
 10
1208.8
 20
429.0
 30
0.0
  0
VERTEX
  5
578
100
AcDbEntity
  8
____
  6
CONTINUOUS
 62
     7
100
AcDbVertex
100
AcDb2dVertex
 10
1212.0101
 20
427.4714
 30
0.0
 42
0.111567
  0
VERTEX
  5
579
100
AcDbEntity
  8
____
  6
CONTINUOUS
 62
     7
100
AcDbVertex
100
AcDb2dVertex
 10
1216.3094
 20
426.5
 30
0.0
  0
VERTEX
  5
57A
100
AcDbEntity
  8
____
  6
CONTINUOUS
 62
     7
100
AcDbVertex
100
AcDb2dVertex
 10
1251.2906
 20
426.5
 30
0.0
 42
0.111566
  0
VERTEX
  5
57B
100
AcDbEntity
  8
____
  6
CONTINUOUS
 62
     7
100
AcDbVertex
100
AcDb2dVertex
 10
1255.5899
 20
427.4714
 30
0.0
  0
VERTEX
  5
57C
100
AcDbEntity
  8
____
  6
CONTINUOUS
 62
     7
100
AcDbVertex
100
AcDb2dVertex
 10
1258.8
 20
429.0
 30
0.0
  0
VERTEX
  5
57D
100
AcDbEntity
  8
____
  6
CONTINUOUS
 62
     7
100
AcDbVertex
100
AcDb2dVertex
 10
1258.8
 20
469.0
 30
0.0
  0
VERTEX
  5
57E
100
AcDbEntity
  8
____
  6
CONTINUOUS
 62
     7
100
AcDbVertex
100
AcDb2dVertex
 10
1255.5899
 20
470.5286
 30
0.0
 42
0.111567
  0
VERTEX
  5
57F
100
AcDbEntity
  8
____
  6
CONTINUOUS
 62
     7
100
AcDbVertex
100
AcDb2dVertex
 10
1251.2906
 20
471.5
 30
0.0
  0
VERTEX
  5
580
100
AcDbEntity
  8
____
  6
CONTINUOUS
 62
     7
100
AcDbVertex
100
AcDb2dVertex
 10
1248.3
 20
471.5
 30
0.0
  0
VERTEX
  5
581
100
AcDbEntity
  8
____
  6
CONTINUOUS
 62
     7
100
AcDbVertex
100
AcDb2dVertex
 10
1248.3
 20
501.5
 30
0.0
  0
VERTEX
  5
582
100
AcDbEntity
  8
____
  6
CONTINUOUS
 62
     7
100
AcDbVertex
100
AcDb2dVertex
 10
1219.3
 20
501.5
 30
0.0
  0
VERTEX
  5
583
100
AcDbEntity
  8
____
  6
CONTINUOUS
 62
     7
100
AcDbVertex
100
AcDb2dVertex
 10
1219.3
 20
471.5
 30
0.0
  0
VERTEX
  5
584
100
AcDbEntity
  8
____
  6
CONTINUOUS
 62
     7
100
AcDbVertex
100
AcDb2dVertex
 10
1216.3094
 20
471.5
 30
0.0
 42
0.111566
  0
VERTEX
  5
585
100
AcDbEntity
  8
____
  6
CONTINUOUS
 62
     7
100
AcDbVertex
100
AcDb2dVertex
 10
1212.0101
 20
470.5286
 30
0.0
  0
VERTEX
  5
586
100
AcDbEntity
  8
____
  6
CONTINUOUS
 62
     7
100
AcDbVertex
100
AcDb2dVertex
 10
1208.8
 20
469.0
 30
0.0
  0
VERTEX
  5
587
100
AcDbEntity
  8
____
  6
CONTINUOUS
 62
     7
100
AcDbVertex
100
AcDb2dVertex
 10
1208.8
 20
429.0
 30
0.0
  0
SEQEND
  5
588
100
AcDbEntity
  8
____
  6
CONTINUOUS
 62
     7
  0
POLYLINE
  5
320
100
AcDbEntity
  8
____
  6
CONTINUOUS
 62
     7
100
AcDb2dPolyline
 66
     1
 10
0.0
 20
0.0
 30
0.0
 75
     5
  0
VERTEX
  5
321
100
AcDbEntity
  8
____
  6
CONTINUOUS
 62
     7
100
AcDbVertex
100
AcDb2dVertex
 10
1258.8
 20
430.0
 30
0.0
  0
VERTEX
  5
322
100
AcDbEntity
  8
____
  6
CONTINUOUS
 62
     7
100
AcDbVertex
100
AcDb2dVertex
 10
1331.8
 20
430.0
 30
0.0
  0
VERTEX
  5
323
100
AcDbEntity
  8
____
  6
CONTINUOUS
 62
     7
100
AcDbVertex
100
AcDb2dVertex
 10
1331.8
 20
468.0
 30
0.0
  0
VERTEX
  5
324
100
AcDbEntity
  8
____
  6
CONTINUOUS
 62
     7
100
AcDbVertex
100
AcDb2dVertex
 10
1258.8
 20
468.0
 30
0.0
  0
SEQEND
  5
325
100
AcDbEntity
  8
____
  6
CONTINUOUS
  0
LINE
  5
326
100
AcDbEntity
  8
____
  6
CONTINUOUS
 62
     7
100
AcDbLine
 10
701.3
 20
468.0
 30
0.0
 11
1208.8
 21
468.0
 31
0.0
  0
LINE
  5
327
100
AcDbEntity
  8
____
  6
CONTINUOUS
 62
     7
100
AcDbLine
 10
1208.8
 20
430.0
 30
0.0
 11
701.3
 21
430.0
 31
0.0
  0
POLYLINE
  5
328
100
AcDbEntity
  8
____
  6
CONTINUOUS
 62
     7
100
AcDb2dPolyline
 66
     1
 10
0.0
 20
0.0
 30
0.0
 75
     5
  0
VERTEX
  5
329
100
AcDbEntity
  8
____
  6
CONTINUOUS
 62
     7
100
AcDbVertex
100
AcDb2dVertex
 10
678.8
 20
470.5
 30
0.0
  0
VERTEX
  5
32A
100
AcDbEntity
  8
____
  6
CONTINUOUS
 62
     7
100
AcDbVertex
100
AcDb2dVertex
 10
678.8
 20
964.0
 30
0.0
  0
VERTEX
  5
32B
100
AcDbEntity
  8
____
  6
CONTINUOUS
 62
     7
100
AcDbVertex
100
AcDb2dVertex
 10
668.8
 20
974.0
 30
0.0
  0
VERTEX
  5
32C
100
AcDbEntity
  8
____
  6
CONTINUOUS
 62
     7
100
AcDbVertex
100
AcDb2dVertex
 10
653.8
 20
974.0
 30
0.0
  0
VERTEX
  5
32D
100
AcDbEntity
  8
____
  6
CONTINUOUS
 62
     7
100
AcDbVertex
100
AcDb2dVertex
 10
653.8
 20
374.0
 30
0.0
  0
VERTEX
  5
32E
100
AcDbEntity
  8
____
  6
CONTINUOUS
 62
     7
100
AcDbVertex
100
AcDb2dVertex
 10
668.8
 20
374.0
 30
0.0
  0
VERTEX
  5
32F
100
AcDbEntity
  8
____
  6
CONTINUOUS
 62
     7
100
AcDbVertex
100
AcDb2dVertex
 10
678.8
 20
384.0
 30
0.0
  0
VERTEX
  5
330
100
AcDbEntity
  8
____
  6
CONTINUOUS
 62
     7
100
AcDbVertex
100
AcDb2dVertex
 10
678.8
 20
427.5
 30
0.0
  0
SEQEND
  5
331
100
AcDbEntity
  8
____
  6
CONTINUOUS
  0
LINE
  5
332
100
AcDbEntity
  8
____
  6
CONTINUOUS
 62
     7
100
AcDbLine
 10
687.3
 20
643.0
 30
0.0
 11
678.8
 21
500.0154
 31
0.0
  0
LINE
  5
333
100
AcDbEntity
  8
____
  6
CONTINUOUS
 62
     7
100
AcDbLine
 10
704.7093
 20
468.0
 30
0.0
 11
715.2341
 21
641.8093
 31
0.0
  0
POLYLINE
  5
334
100
AcDbEntity
  8
____
  6
CONTINUOUS
 62
     7
100
AcDb2dPolyline
 66
     1
 10
0.0
 20
0.0
 30
0.0
 75
     5
  0
VERTEX
  5
335
100
AcDbEntity
  8
____
  6
CONTINUOUS
 62
     7
100
AcDbVertex
100
AcDb2dVertex
 10
658.8
 20
335.0
 30
0.0
  0
VERTEX
  5
336
100
AcDbEntity
  8
____
  6
CONTINUOUS
 62
     7
100
AcDbVertex
100
AcDb2dVertex
 10
618.8
 20
335.0
 30
0.0
  0
VERTEX
  5
337
100
AcDbEntity
  8
____
  6
CONTINUOUS
 62
     7
100
AcDbVertex
100
AcDb2dVertex
 10
618.8
 20
357.0
 30
0.0
  0
VERTEX
  5
338
100
AcDbEntity
  8
____
  6
CONTINUOUS
 62
     7
100
AcDbVertex
100
AcDb2dVertex
 10
658.8
 20
357.0
 30
0.0
  0
SEQEND
  5
339
100
AcDbEntity
  8
____
  6
CONTINUOUS
  0
POLYLINE
  5
33A
100
AcDbEntity
  8
____
  6
CONTINUOUS
 62
     7
100
AcDb2dPolyline
 66
     1
 10
0.0
 20
0.0
 30
0.0
 75
     5
  0
VERTEX
  5
33B
100
AcDbEntity
  8
____
  6
CONTINUOUS
 62
     7
100
AcDbVertex
100
AcDb2dVertex
 10
696.9463
 20
356.0684
 30
0.0
  0
VERTEX
  5
33C
100
AcDbEntity
  8
____
  6
CONTINUOUS
 62
     7
100
AcDbVertex
100
AcDb2dVertex
 10
697.177
 20
356.0529
 30
0.0
  0
VERTEX
  5
33D
100
AcDbEntity
  8
____
  6
CONTINUOUS
 62
     7
100
AcDbVertex
100
AcDb2dVertex
 10
702.1525
 20
430.0
 30
0.0
  0
SEQEND
  5
33E
100
AcDbEntity
  8
____
  6
CONTINUOUS
  0
LINE
  5
33F
100
AcDbEntity
  8
____
  6
CONTINUOUS
 62
     7
100
AcDbLine
 10
669.3793
 20
360.0
 30
0.0
 11
670.431
 21
375.631
 31
0.0
  0
LINE
  5
340
100
AcDbEntity
  8
____
  6
CONTINUOUS
 62
     7
100
AcDbLine
 10
684.6204
 20
640.0612
 30
0.0
 11
684.5225
 21
640.5405
 31
0.0
  0
LINE
  5
341
100
AcDbEntity
  8
____
  6
CONTINUOUS
 62
     7
100
AcDbLine
 10
684.7361
 20
639.5861
 30
0.0
 11
684.6204
 21
640.0612
 31
0.0
  0
LINE
  5
342
100
AcDbEntity
  8
____
  6
CONTINUOUS
 62
     7
100
AcDbLine
 10
684.8694
 20
639.1154
 30
0.0
 11
684.7361
 21
639.5861
 31
0.0
  0
LINE
  5
343
100
AcDbEntity
  8
____
  6
CONTINUOUS
 62
     7
100
AcDbLine
 10
685.0207
 20
638.6487
 30
0.0
 11
684.8694
 21
639.1154
 31
0.0
  0
LINE
  5
344
100
AcDbEntity
  8
____
  6
CONTINUOUS
 62
     7
100
AcDbLine
 10
685.1898
 20
638.1862
 30
0.0
 11
685.0207
 21
638.6487
 31
0.0
  0
LINE
  5
345
100
AcDbEntity
  8
____
  6
CONTINUOUS
 62
     7
100
AcDbLine
 10
685.3767
 20
637.7279
 30
0.0
 11
685.1898
 21
638.1862
 31
0.0
  0
POLYLINE
  5
346
100
AcDbEntity
  8
____
  6
CONTINUOUS
 62
     7
100
AcDb2dPolyline
 66
     1
 10
0.0
 20
0.0
 30
0.0
 75
     5
  0
VERTEX
  5
347
100
AcDbEntity
  8
____
  6
CONTINUOUS
 62
     7
100
AcDbVertex
100
AcDb2dVertex
 10
678.8
 20
877.5
 30
0.0
  0
VERTEX
  5
348
100
AcDbEntity
  8
____
  6
CONTINUOUS
 62
     7
100
AcDbVertex
100
AcDb2dVertex
 10
701.3
 20
877.5
 30
0.0
  0
VERTEX
  5
349
100
AcDbEntity
  8
____
  6
CONTINUOUS
 62
     7
100
AcDbVertex
100
AcDb2dVertex
 10
701.3
 20
920.5
 30
0.0
  0
VERTEX
  5
34A
100
AcDbEntity
  8
____
  6
CONTINUOUS
 62
     7
100
AcDbVertex
100
AcDb2dVertex
 10
678.8
 20
920.5
 30
0.0
  0
SEQEND
  5
34B
100
AcDbEntity
  8
____
  6
CONTINUOUS
  0
LINE
  5
34C
100
AcDbEntity
  8
____
  6
CONTINUOUS
 62
     7
100
AcDbLine
 10
701.3
 20
918.0
 30
0.0
 11
1208.8
 21
918.0
 31
0.0
  0
LINE
  5
34D
100
AcDbEntity
  8
____
  6
CONTINUOUS
 62
     7
100
AcDbLine
 10
1208.8
 20
880.0
 30
0.0
 11
701.3
 21
880.0
 31
0.0
  0
POLYLINE
  5
34E
100
AcDbEntity
  8
____
  6
CONTINUOUS
 62
     7
100
AcDb2dPolyline
 66
     1
 10
0.0
 20
0.0
 30
0.0
 75
     5
  0
VERTEX
  5
34F
100
AcDbEntity
  8
____
  6
CONTINUOUS
 62
     7
100
AcDbVertex
100
AcDb2dVertex
 10
585.8
 20
370.0
 30
0.0
  0
VERTEX
  5
350
100
AcDbEntity
  8
____
  6
CONTINUOUS
 62
     7
100
AcDbVertex
100
AcDb2dVertex
 10
585.8
 20
370.0
 30
0.0
  0
VERTEX
  5
351
100
AcDbEntity
  8
____
  6
CONTINUOUS
 62
     7
100
AcDbVertex
100
AcDb2dVertex
 10
651.8
 20
370.0
 30
0.0
  0
VERTEX
  5
352
100
AcDbEntity
  8
____
  6
CONTINUOUS
 62
     7
100
AcDbVertex
100
AcDb2dVertex
 10
651.8
 20
408.0
 30
0.0
  0
VERTEX
  5
353
100
AcDbEntity
  8
____
  6
CONTINUOUS
 62
     7
100
AcDbVertex
100
AcDb2dVertex
 10
653.8
 20
408.0
 30
0.0
  0
VERTEX
  5
354
100
AcDbEntity
  8
____
  6
CONTINUOUS
 62
     7
100
AcDbVertex
100
AcDb2dVertex
 10
653.8
 20
368.0
 30
0.0
  0
VERTEX
  5
355
100
AcDbEntity
  8
____
  6
CONTINUOUS
 62
     7
100
AcDbVertex
100
AcDb2dVertex
 10
583.8
 20
368.0
 30
0.0
  0
VERTEX
  5
356
100
AcDbEntity
  8
____
  6
CONTINUOUS
 62
     7
100
AcDbVertex
100
AcDb2dVertex
 10
583.8
 20
980.0
 30
0.0
  0
VERTEX
  5
357
100
AcDbEntity
  8
____
  6
CONTINUOUS
 62
     7
100
AcDbVertex
100
AcDb2dVertex
 10
653.8
 20
980.0
 30
0.0
  0
VERTEX
  5
358
100
AcDbEntity
  8
____
  6
CONTINUOUS
 62
     7
100
AcDbVertex
100
AcDb2dVertex
 10
653.8
 20
938.0
 30
0.0
  0
VERTEX
  5
359
100
AcDbEntity
  8
____
  6
CONTINUOUS
 62
     7
100
AcDbVertex
100
AcDb2dVertex
 10
651.8
 20
938.0
 30
0.0
  0
VERTEX
  5
35A
100
AcDbEntity
  8
____
  6
CONTINUOUS
 62
     7
100
AcDbVertex
100
AcDb2dVertex
 10
651.8
 20
978.0
 30
0.0
  0
VERTEX
  5
35B
100
AcDbEntity
  8
____
  6
CONTINUOUS
 62
     7
100
AcDbVertex
100
AcDb2dVertex
 10
585.8
 20
978.0
 30
0.0
  0
VERTEX
  5
35C
100
AcDbEntity
  8
____
  6
CONTINUOUS
 62
     7
100
AcDbVertex
100
AcDb2dVertex
 10
585.8
 20
950.0
 30
0.0
  0
SEQEND
  5
35D
100
AcDbEntity
  8
____
  6
CONTINUOUS
  0
POLYLINE
  5
35E
100
AcDbEntity
  8
____
  6
CONTINUOUS
 62
     7
100
AcDb2dPolyline
 66
     1
 10
0.0
 20
0.0
 30
0.0
 75
     5
  0
VERTEX
  5
35F
100
AcDbEntity
  8
____
  6
CONTINUOUS
 62
     7
100
AcDbVertex
100
AcDb2dVertex
 10
603.8
 20
600.0
 30
0.0
  0
VERTEX
  5
360
100
AcDbEntity
  8
____
  6
CONTINUOUS
 62
     7
100
AcDbVertex
100
AcDb2dVertex
 10
653.8
 20
600.0
 30
0.0
  0
VERTEX
  5
361
100
AcDbEntity
  8
____
  6
CONTINUOUS
 62
     7
100
AcDbVertex
100
AcDb2dVertex
 10
653.8
 20
720.0
 30
0.0
  0
VERTEX
  5
362
100
AcDbEntity
  8
____
  6
CONTINUOUS
 62
     7
100
AcDbVertex
100
AcDb2dVertex
 10
603.8
 20
720.0
 30
0.0
  0
SEQEND
  5
363
100
AcDbEntity
  8
____
  6
CONTINUOUS
  0
POLYLINE
  5
364
100
AcDbEntity
  8
____
  6
CONTINUOUS
 62
     7
100
AcDb2dPolyline
 66
     1
 10
0.0
 20
0.0
 30
0.0
 75
     5
  0
VERTEX
  5
365
100
AcDbEntity
  8
____
  6
CONTINUOUS
 62
     7
100
AcDbVertex
100
AcDb2dVertex
 10
-526.2
 20
365.0
 30
0.0
  0
VERTEX
  5
366
100
AcDbEntity
  8
____
  6
CONTINUOUS
 62
     7
100
AcDbVertex
100
AcDb2dVertex
 10
-526.2
 20
365.0
 30
0.0
  0
VERTEX
  5
367
100
AcDbEntity
  8
____
  6
CONTINUOUS
 62
     7
100
AcDbVertex
100
AcDb2dVertex
 10
-526.2
 20
915.0
 30
0.0
  0
VERTEX
  5
368
100
AcDbEntity
  8
____
  6
CONTINUOUS
 62
     7
100
AcDbVertex
100
AcDb2dVertex
 10
-1226.2
 20
915.0
 30
0.0
  0
VERTEX
  5
369
100
AcDbEntity
  8
____
  6
CONTINUOUS
 62
     7
100
AcDbVertex
100
AcDb2dVertex
 10
-1226.2
 20
365.0
 30
0.0
  0
VERTEX
  5
36A
100
AcDbEntity
  8
____
  6
CONTINUOUS
 62
     7
100
AcDbVertex
100
AcDb2dVertex
 10
-706.2
 20
365.0
 30
0.0
  0
SEQEND
  5
36B
100
AcDbEntity
  8
____
  6
CONTINUOUS
  0
LINE
  5
36C
100
AcDbEntity
  8
____
  6
CONTINUOUS
 62
     7
100
AcDbLine
 10
-1226.2
 20
365.0
 30
0.0
 11
-706.2
 21
365.0
 31
0.0
  0
POLYLINE
  5
36D
100
AcDbEntity
  8
____
  6
CONTINUOUS
 62
     7
100
AcDb2dPolyline
 66
     1
 10
0.0
 20
0.0
 30
0.0
 75
     5
  0
VERTEX
  5
36E
100
AcDbEntity
  8
____
  6
CONTINUOUS
 62
     7
100
AcDbVertex
100
AcDb2dVertex
 10
-526.2
 20
915.0
 30
0.0
  0
VERTEX
  5
36F
100
AcDbEntity
  8
____
  6
CONTINUOUS
 62
     7
100
AcDbVertex
100
AcDb2dVertex
 10
-526.2
 20
365.0
 30
0.0
  0
VERTEX
  5
370
100
AcDbEntity
  8
____
  6
CONTINUOUS
 62
     7
100
AcDbVertex
100
AcDb2dVertex
 10
-526.2
 20
365.0
 30
0.0
  0
SEQEND
  5
371
100
AcDbEntity
  8
____
  6
CONTINUOUS
  0
POLYLINE
  5
372
100
AcDbEntity
  8
____
  6
CONTINUOUS
 62
     7
100
AcDb2dPolyline
 66
     1
 10
0.0
 20
0.0
 30
0.0
 75
     5
  0
VERTEX
  5
373
100
AcDbEntity
  8
____
  6
CONTINUOUS
 62
     7
100
AcDbVertex
100
AcDb2dVertex
 10
-1259.2
 20
330.0
 30
0.0
  0
VERTEX
  5
374
100
AcDbEntity
  8
____
  6
CONTINUOUS
 62
     7
100
AcDbVertex
100
AcDb2dVertex
 10
-1259.2
 20
327.0
 30
0.0
  0
VERTEX
  5
375
100
AcDbEntity
  8
____
  6
CONTINUOUS
 62
     7
100
AcDbVertex
100
AcDb2dVertex
 10
-553.2
 20
327.0
 30
0.0
  0
VERTEX
  5
376
100
AcDbEntity
  8
____
  6
CONTINUOUS
 62
     7
100
AcDbVertex
100
AcDb2dVertex
 10
-553.2
 20
330.0
 30
0.0
  0
SEQEND
  5
377
100
AcDbEntity
  8
____
  6
CONTINUOUS
  0
LINE
  5
378
100
AcDbEntity
  8
____
  6
CONTINUOUS
 62
     7
100
AcDbLine
 10
-706.2
 20
365.0
 30
0.0
 11
-1226.2
 21
365.0
 31
0.0
  0
LINE
  5
379
100
AcDbEntity
  8
____
  6
CONTINUOUS
 62
     7
100
AcDbLine
 10
-526.2
 20
980.0
 30
0.0
 11
-526.2
 21
915.0
 31
0.0
  0
LINE
  5
37A
100
AcDbEntity
  8
____
  6
CONTINUOUS
 62
     7
100
AcDbLine
 10
-920.2
 20
-375.9133
 30
0.0
 11
-1020.3033
 21
-394.469
 31
0.0
  0
POLYLINE
  5
37B
100
AcDbEntity
  8
____
  6
CONTINUOUS
 62
     7
100
AcDb2dPolyline
 66
     1
 10
0.0
 20
0.0
 30
0.0
 75
     5
  0
VERTEX
  5
37C
100
AcDbEntity
  8
____
  6
CONTINUOUS
 62
     7
100
AcDbVertex
100
AcDb2dVertex
 10
-912.7
 20
-403.0
 30
0.0
  0
VERTEX
  5
37D
100
AcDbEntity
  8
____
  6
CONTINUOUS
 62
     7
100
AcDbVertex
100
AcDb2dVertex
 10
-912.7
 20
-403.0
 30
0.0
  0
VERTEX
  5
37E
100
AcDbEntity
  8
____
  6
CONTINUOUS
 62
     7
100
AcDbVertex
100
AcDb2dVertex
 10
-1015.2
 20
-422.0
 30
0.0
  0
SEQEND
  5
37F
100
AcDbEntity
  8
____
  6
CONTINUOUS
  0
POLYLINE
  5
380
100
AcDbEntity
  8
____
  6
CONTINUOUS
 62
     7
100
AcDb2dPolyline
 66
     1
 10
0.0
 20
0.0
 30
0.0
 75
     5
  0
VERTEX
  5
381
100
AcDbEntity
  8
____
  6
CONTINUOUS
 62
     7
100
AcDbVertex
100
AcDb2dVertex
 10
-895.2
 20
-365.0
 30
0.0
  0
VERTEX
  5
382
100
AcDbEntity
  8
____
  6
CONTINUOUS
 62
     7
100
AcDbVertex
100
AcDb2dVertex
 10
-895.2
 20
-325.0
 30
0.0
  0
VERTEX
  5
383
100
AcDbEntity
  8
____
  6
CONTINUOUS
 62
     7
100
AcDbVertex
100
AcDb2dVertex
 10
-917.2
 20
-325.0
 30
0.0
  0
VERTEX
  5
384
100
AcDbEntity
  8
____
  6
CONTINUOUS
 62
     7
100
AcDbVertex
100
AcDb2dVertex
 10
-917.2
 20
-365.0
 30
0.0
  0
SEQEND
  5
385
100
AcDbEntity
  8
____
  6
CONTINUOUS
  0
POLYLINE
  5
386
100
AcDbEntity
  8
____
  6
CONTINUOUS
 62
     7
100
AcDb2dPolyline
 66
     1
 10
0.0
 20
0.0
 30
0.0
 75
     5
  0
VERTEX
  5
387
100
AcDbEntity
  8
____
  6
CONTINUOUS
 62
     7
100
AcDbVertex
100
AcDb2dVertex
 10
-895.2
 20
-360.0
 30
0.0
  0
VERTEX
  5
388
100
AcDbEntity
  8
____
  6
CONTINUOUS
 62
     7
100
AcDbVertex
100
AcDb2dVertex
 10
-553.2
 20
-360.0
 30
0.0
  0
VERTEX
  5
389
100
AcDbEntity
  8
____
  6
CONTINUOUS
 62
     7
100
AcDbVertex
100
AcDb2dVertex
 10
-553.2
 20
-325.0
 30
0.0
  0
VERTEX
  5
38A
100
AcDbEntity
  8
____
  6
CONTINUOUS
 62
     7
100
AcDbVertex
100
AcDb2dVertex
 10
-1259.2
 20
-325.0
 30
0.0
  0
VERTEX
  5
38B
100
AcDbEntity
  8
____
  6
CONTINUOUS
 62
     7
100
AcDbVertex
100
AcDb2dVertex
 10
-1259.2
 20
-360.0
 30
0.0
  0
VERTEX
  5
38C
100
AcDbEntity
  8
____
  6
CONTINUOUS
 62
     7
100
AcDbVertex
100
AcDb2dVertex
 10
-917.2
 20
-360.0
 30
0.0
  0
SEQEND
  5
38D
100
AcDbEntity
  8
____
  6
CONTINUOUS
  0
LINE
  5
38E
100
AcDbEntity
  8
____
  6
CONTINUOUS
 62
     7
100
AcDbLine
 10
-1006.2
 20
-368.0
 30
0.0
 11
-1006.2
 21
-370.5
 31
0.0
  0
LINE
  5
38F
100
AcDbEntity
  8
____
  6
CONTINUOUS
 62
     7
100
AcDbLine
 10
-1056.2
 20
-368.0
 30
0.0
 11
-1056.2
 21
-370.5
 31
0.0
  0
POLYLINE
  5
390
100
AcDbEntity
  8
____
  6
CONTINUOUS
 62
     7
100
AcDb2dPolyline
 66
     1
 10
0.0
 20
0.0
 30
0.0
 75
     5
  0
VERTEX
  5
391
100
AcDbEntity
  8
____
  6
CONTINUOUS
 62
     7
100
AcDbVertex
100
AcDb2dVertex
 10
-1056.2
 20
-360.0
 30
0.0
  0
VERTEX
  5
392
100
AcDbEntity
  8
____
  6
CONTINUOUS
 62
     7
100
AcDbVertex
100
AcDb2dVertex
 10
-1056.2
 20
-360.0
 30
0.0
  0
VERTEX
  5
393
100
AcDbEntity
  8
____
  6
CONTINUOUS
 62
     7
100
AcDbVertex
100
AcDb2dVertex
 10
-1006.2
 20
-360.0
 30
0.0
  0
VERTEX
  5
394
100
AcDbEntity
  8
____
  6
CONTINUOUS
 62
     7
100
AcDbVertex
100
AcDb2dVertex
 10
-1006.2
 20
-360.0
 30
0.0
  0
SEQEND
  5
395
100
AcDbEntity
  8
____
  6
CONTINUOUS
  0
POLYLINE
  5
396
100
AcDbEntity
  8
____
  6
CONTINUOUS
 62
     7
100
AcDb2dPolyline
 66
     1
 10
0.0
 20
0.0
 30
0.0
 75
     5
  0
VERTEX
  5
397
100
AcDbEntity
  8
____
  6
CONTINUOUS
 62
     7
100
AcDbVertex
100
AcDb2dVertex
 10
-1002.7
 20
-391.206
 30
0.0
  0
VERTEX
  5
398
100
AcDbEntity
  8
____
  6
CONTINUOUS
 62
     7
100
AcDbVertex
100
AcDb2dVertex
 10
-1002.7
 20
-370.5
 30
0.0
  0
VERTEX
  5
399
100
AcDbEntity
  8
____
  6
CONTINUOUS
 62
     7
100
AcDbVertex
100
AcDb2dVertex
 10
-1059.7
 20
-370.5
 30
0.0
  0
VERTEX
  5
39A
100
AcDbEntity
  8
____
  6
CONTINUOUS
 62
     7
100
AcDbVertex
100
AcDb2dVertex
 10
-1059.7
 20
-445.5
 30
0.0
  0
VERTEX
  5
39B
100
AcDbEntity
  8
____
  6
CONTINUOUS
 62
     7
100
AcDbVertex
100
AcDb2dVertex
 10
-1002.7
 20
-445.5
 30
0.0
  0
VERTEX
  5
39C
100
AcDbEntity
  8
____
  6
CONTINUOUS
 62
     7
100
AcDbVertex
100
AcDb2dVertex
 10
-1002.7
 20
-419.6829
 30
0.0
  0
SEQEND
  5
39D
100
AcDbEntity
  8
____
  6
CONTINUOUS
  0
LINE
  5
39E
100
AcDbEntity
  8
____
  6
CONTINUOUS
 62
     7
100
AcDbLine
 10
-757.2
 20
-409.5
 30
0.0
 11
-757.2
 21
-915.0
 31
0.0
  0
LINE
  5
39F
100
AcDbEntity
  8
____
  6
CONTINUOUS
 62
     7
100
AcDbLine
 10
-795.2
 20
-915.0
 30
0.0
 11
-795.2
 21
-409.5
 31
0.0
  0
POLYLINE
  5
3A0
100
AcDbEntity
  8
____
  6
CONTINUOUS
 62
     7
100
AcDb2dPolyline
 66
     1
 10
0.0
 20
0.0
 30
0.0
 75
     5
  0
VERTEX
  5
3A1
100
AcDbEntity
  8
____
  6
CONTINUOUS
 62
     7
100
AcDbVertex
100
AcDb2dVertex
 10
-795.2
 20
-965.0
 30
0.0
  0
VERTEX
  5
3A2
100
AcDbEntity
  8
____
  6
CONTINUOUS
 62
     7
100
AcDbVertex
100
AcDb2dVertex
 10
-795.2
 20
-1038.0
 30
0.0
  0
VERTEX
  5
3A3
100
AcDbEntity
  8
____
  6
CONTINUOUS
 62
     7
100
AcDbVertex
100
AcDb2dVertex
 10
-757.2
 20
-1038.0
 30
0.0
  0
VERTEX
  5
3A4
100
AcDbEntity
  8
____
  6
CONTINUOUS
 62
     7
100
AcDbVertex
100
AcDb2dVertex
 10
-757.2
 20
-965.0
 30
0.0
  0
SEQEND
  5
3A5
100
AcDbEntity
  8
____
  6
CONTINUOUS
  0
LINE
  5
3A6
100
AcDbEntity
  8
____
  6
CONTINUOUS
 62
     7
100
AcDbLine
 10
-1173.7
 20
-927.5
 30
0.0
 11
-828.7
 21
-927.5
 31
0.0
  0
LINE
  5
3A7
100
AcDbEntity
  8
____
  6
CONTINUOUS
 62
     7
100
AcDbLine
 10
-828.7
 20
-952.5
 30
0.0
 11
-1173.7
 21
-952.5
 31
0.0
  0
LINE
  5
3A8
100
AcDbEntity
  8
____
  6
CONTINUOUS
 62
     7
100
AcDbLine
 10
-1207.2
 20
-409.5
 30
0.0
 11
-1207.2
 21
-915.0
 31
0.0
  0
LINE
  5
3A9
100
AcDbEntity
  8
____
  6
CONTINUOUS
 62
     7
100
AcDbLine
 10
-1245.2
 20
-915.0
 30
0.0
 11
-1245.2
 21
-409.5
 31
0.0
  0
POLYLINE
  5
3AA
100
AcDbEntity
  8
____
  6
CONTINUOUS
 62
     7
100
AcDb2dPolyline
 66
     1
 10
0.0
 20
0.0
 30
0.0
 75
     5
  0
VERTEX
  5
3AB
100
AcDbEntity
  8
____
  6
CONTINUOUS
 62
     7
100
AcDbVertex
100
AcDb2dVertex
 10
-1245.2
 20
-965.0
 30
0.0
  0
VERTEX
  5
3AC
100
AcDbEntity
  8
____
  6
CONTINUOUS
 62
     7
100
AcDbVertex
100
AcDb2dVertex
 10
-1245.2
 20
-1038.0
 30
0.0
  0
VERTEX
  5
3AD
100
AcDbEntity
  8
____
  6
CONTINUOUS
 62
     7
100
AcDbVertex
100
AcDb2dVertex
 10
-1207.2
 20
-1038.0
 30
0.0
  0
VERTEX
  5
3AE
100
AcDbEntity
  8
____
  6
CONTINUOUS
 62
     7
100
AcDbVertex
100
AcDb2dVertex
 10
-1207.2
 20
-965.0
 30
0.0
  0
SEQEND
  5
3AF
100
AcDbEntity
  8
____
  6
CONTINUOUS
  0
POLYLINE
  5
3B0
100
AcDbEntity
  8
____
  6
CONTINUOUS
 62
     7
100
AcDb2dPolyline
 66
     1
 10
0.0
 20
0.0
 30
0.0
 75
     5
  0
VERTEX
  5
3B1
100
AcDbEntity
  8
____
  6
CONTINUOUS
 62
     7
100
AcDbVertex
100
AcDb2dVertex
 10
714.5493
 20
630.5
 30
0.0
  0
VERTEX
  5
3B2
100
AcDbEntity
  8
____
  6
CONTINUOUS
 62
     7
100
AcDbVertex
100
AcDb2dVertex
 10
738.8
 20
630.5
 30
0.0
  0
VERTEX
  5
3B3
100
AcDbEntity
  8
____
  6
CONTINUOUS
 62
     7
100
AcDbVertex
100
AcDb2dVertex
 10
738.8
 20
687.5
 30
0.0
  0
VERTEX
  5
3B4
100
AcDbEntity
  8
____
  6
CONTINUOUS
 62
     7
100
AcDbVertex
100
AcDb2dVertex
 10
678.8
 20
687.5
 30
0.0
  0
SEQEND
  5
3B5
100
AcDbEntity
  8
____
  6
CONTINUOUS
  0
LINE
  5
3B6
100
AcDbEntity
  8
____
  6
CONTINUOUS
 62
     7
100
AcDbLine
 10
678.8
 20
630.5
 30
0.0
 11
686.5569
 21
630.5
 31
0.0
  0
POLYLINE
  5
3B7
100
AcDbEntity
  8
____
  6
CONTINUOUS
 62
     7
100
AcDb2dPolyline
 66
     1
 10
0.0
 20
0.0
 30
0.0
 75
     5
  0
VERTEX
  5
3B8
100
AcDbEntity
  8
____
  6
CONTINUOUS
 62
     7
100
AcDbVertex
100
AcDb2dVertex
 10
-1259.2
 20
-290.0
 30
0.0
  0
VERTEX
  5
3B9
100
AcDbEntity
  8
____
  6
CONTINUOUS
 62
     7
100
AcDbVertex
100
AcDb2dVertex
 10
-1259.2
 20
-290.0
 30
0.0
  0
VERTEX
  5
3BA
100
AcDbEntity
  8
____
  6
CONTINUOUS
 62
     7
100
AcDbVertex
100
AcDb2dVertex
 10
-1259.2
 20
-292.0
 30
0.0
  0
VERTEX
  5
3BB
100
AcDbEntity
  8
____
  6
CONTINUOUS
 62
     7
100
AcDbVertex
100
AcDb2dVertex
 10
-1259.2
 20
-292.0
 30
0.0
  0
SEQEND
  5
3BC
100
AcDbEntity
  8
____
  6
CONTINUOUS
  0
POLYLINE
  5
3BD
100
AcDbEntity
  8
____
  6
CONTINUOUS
 62
     7
100
AcDb2dPolyline
 66
     1
 10
0.0
 20
0.0
 30
0.0
 75
     5
  0
VERTEX
  5
3BE
100
AcDbEntity
  8
____
  6
CONTINUOUS
 62
     7
100
AcDbVertex
100
AcDb2dVertex
 10
-553.2
 20
-290.0
 30
0.0
  0
VERTEX
  5
3BF
100
AcDbEntity
  8
____
  6
CONTINUOUS
 62
     7
100
AcDbVertex
100
AcDb2dVertex
 10
-553.2
 20
-290.0
 30
0.0
  0
VERTEX
  5
3C0
100
AcDbEntity
  8
____
  6
CONTINUOUS
 62
     7
100
AcDbVertex
100
AcDb2dVertex
 10
-553.2
 20
-292.0
 30
0.0
  0
VERTEX
  5
3C1
100
AcDbEntity
  8
____
  6
CONTINUOUS
 62
     7
100
AcDbVertex
100
AcDb2dVertex
 10
-553.2
 20
-292.0
 30
0.0
  0
SEQEND
  5
3C2
100
AcDbEntity
  8
____
  6
CONTINUOUS
  0
POLYLINE
  5
3C3
100
AcDbEntity
  8
____
  6
CONTINUOUS
 62
     7
100
AcDb2dPolyline
 66
     1
 10
0.0
 20
0.0
 30
0.0
 75
     5
  0
VERTEX
  5
3C4
100
AcDbEntity
  8
____
  6
CONTINUOUS
 62
     7
100
AcDbVertex
100
AcDb2dVertex
 10
-1259.2
 20
-292.0
 30
0.0
  0
VERTEX
  5
3C5
100
AcDbEntity
  8
____
  6
CONTINUOUS
 62
     7
100
AcDbVertex
100
AcDb2dVertex
 10
-1259.2
 20
-325.0
 30
0.0
  0
VERTEX
  5
3C6
100
AcDbEntity
  8
____
  6
CONTINUOUS
 62
     7
100
AcDbVertex
100
AcDb2dVertex
 10
-553.2
 20
-325.0
 30
0.0
  0
VERTEX
  5
3C7
100
AcDbEntity
  8
____
  6
CONTINUOUS
 62
     7
100
AcDbVertex
100
AcDb2dVertex
 10
-553.2
 20
-292.0
 30
0.0
  0
SEQEND
  5
3C8
100
AcDbEntity
  8
____
  6
CONTINUOUS
  0
LINE
  5
3C9
100
AcDbEntity
  8
____
  6
CONTINUOUS
 62
     7
100
AcDbLine
 10
-528.2
 20
-292.0
 30
0.0
 11
-553.2
 21
-292.0
 31
0.0
  0
LINE
  5
3CA
100
AcDbEntity
  8
____1
  6
CONTINUOUS
 62
     7
100
AcDbLine
 10
-1396.2
 20
1080.0
 30
0.0
 11
-1586.2
 21
1080.0
 31
0.0
  0
LINE
  5
3CB
100
AcDbEntity
  8
____1
  6
CONTINUOUS
 62
     7
100
AcDbLine
 10
-1396.2
 20
330.0
 30
0.0
 11
-1586.2
 21
330.0
 31
0.0
  0
LINE
  5
3CD
100
AcDbEntity
  8
____1
 62
     7
100
AcDbLine
 10
-1566.2
 20
1080.0
 30
0.0
 11
-1560.3055
 21
1058.0013
 31
0.0
  0
LINE
  5
3CE
100
AcDbEntity
  8
____1
 62
     7
100
AcDbLine
 10
-1566.2
 20
1080.0
 30
0.0
 11
-1572.0945
 21
1058.0013
 31
0.0
  0
LINE
  5
3CF
100
AcDbEntity
  8
____1
 62
     7
100
AcDbLine
 10
-1566.2
 20
330.0
 30
0.0
 11
-1572.0945
 21
351.9987
 31
0.0
  0
LINE
  5
3D0
100
AcDbEntity
  8
____1
 62
     7
100
AcDbLine
 10
-1566.2
 20
330.0
 30
0.0
 11
-1560.3055
 21
351.9987
 31
0.0
  0
LINE
  5
3CC
100
AcDbEntity
  8
____1
  6
CONTINUOUS
 62
     7
100
AcDbLine
 10
-1566.2
 20
1080.0
 30
0.0
 11
-1566.2
 21
330.0
 31
0.0
  0
INSERT
  5
3D1
100
AcDbEntity
  8
____1
100
AcDbBlockReference
  2
*G0
 10
0.0
 20
0.0
 30
0.0
  0
LINE
  5
3D2
100
AcDbEntity
  8
____1
  6
CONTINUOUS
 62
     7
100
AcDbLine
 10
-1386.2
 20
1090.0
 30
0.0
 11
-1386.2
 21
1200.0
 31
0.0
  0
LINE
  5
3D3
100
AcDbEntity
  8
____1
  6
CONTINUOUS
 62
     7
100
AcDbLine
 10
-966.2
 20
847.5129
 30
0.0
 11
-966.2
 21
1200.0
 31
0.0
  0
LINE
  5
3D5
100
AcDbEntity
  8
____1
 62
     7
100
AcDbLine
 10
-1386.2
 20
1180.0
 30
0.0
 11
-1364.2013
 21
1185.8945
 31
0.0
  0
LINE
  5
3D6
100
AcDbEntity
  8
____1
 62
     7
100
AcDbLine
 10
-1386.2
 20
1180.0
 30
0.0
 11
-1364.2013
 21
1174.1055
 31
0.0
  0
LINE
  5
3D7
100
AcDbEntity
  8
____1
 62
     7
100
AcDbLine
 10
-966.2
 20
1180.0
 30
0.0
 11
-988.1987
 21
1174.1055
 31
0.0
  0
LINE
  5
3D8
100
AcDbEntity
  8
____1
 62
     7
100
AcDbLine
 10
-966.2
 20
1180.0
 30
0.0
 11
-988.1987
 21
1185.8945
 31
0.0
  0
LINE
  5
3D4
100
AcDbEntity
  8
____1
  6
CONTINUOUS
 62
     7
100
AcDbLine
 10
-1386.2
 20
1180.0
 30
0.0
 11
-966.2
 21
1180.0
 31
0.0
  0
INSERT
  5
3D9
100
AcDbEntity
  8
____1
100
AcDbBlockReference
  2
*G1
 10
0.0
 20
0.0
 30
0.0
  0
LINE
  5
3DA
100
AcDbEntity
  8
____1
  6
CONTINUOUS
 62
     7
100
AcDbLine
 10
-1386.2
 20
1090.0
 30
0.0
 11
-1386.2
 21
1280.0
 31
0.0
  0
LINE
  5
3DB
100
AcDbEntity
  8
____1
  6
CONTINUOUS
 62
     7
100
AcDbLine
 10
-526.2
 20
1090.0
 30
0.0
 11
-526.2
 21
1280.0
 31
0.0
  0
LINE
  5
3DD
100
AcDbEntity
  8
____1
 62
     7
100
AcDbLine
 10
-1386.2
 20
1260.0
 30
0.0
 11
-1364.2013
 21
1265.8945
 31
0.0
  0
LINE
  5
3DE
100
AcDbEntity
  8
____1
 62
     7
100
AcDbLine
 10
-1386.2
 20
1260.0
 30
0.0
 11
-1364.2013
 21
1254.1055
 31
0.0
  0
LINE
  5
3DF
100
AcDbEntity
  8
____1
 62
     7
100
AcDbLine
 10
-526.2
 20
1260.0
 30
0.0
 11
-548.1987
 21
1254.1055
 31
0.0
  0
LINE
  5
3E0
100
AcDbEntity
  8
____1
 62
     7
100
AcDbLine
 10
-526.2
 20
1260.0
 30
0.0
 11
-548.1987
 21
1265.8945
 31
0.0
  0
LINE
  5
3DC
100
AcDbEntity
  8
____1
  6
CONTINUOUS
 62
     7
100
AcDbLine
 10
-1386.2
 20
1260.0
 30
0.0
 11
-526.2
 21
1260.0
 31
0.0
  0
INSERT
  5
3E1
100
AcDbEntity
  8
____1
100
AcDbBlockReference
  2
*G2
 10
0.0
 20
0.0
 30
0.0
  0
LINE
  5
3E2
100
AcDbEntity
  8
____1
  6
CONTINUOUS
 62
     7
100
AcDbLine
 10
-516.2
 20
1080.0
 30
0.0
 11
-406.2
 21
1080.0
 31
0.0
  0
LINE
  5
3E3
100
AcDbEntity
  8
____1
  6
CONTINUOUS
 62
     7
100
AcDbLine
 10
-516.2
 20
980.0
 30
0.0
 11
-406.2
 21
980.0
 31
0.0
  0
LINE
  5
3E5
100
AcDbEntity
  8
____1
 62
     7
100
AcDbLine
 10
-426.2
 20
1080.0
 30
0.0
 11
-420.3055
 21
1058.0013
 31
0.0
  0
LINE
  5
3E6
100
AcDbEntity
  8
____1
 62
     7
100
AcDbLine
 10
-426.2
 20
1080.0
 30
0.0
 11
-432.0945
 21
1058.0013
 31
0.0
  0
LINE
  5
3E7
100
AcDbEntity
  8
____1
 62
     7
100
AcDbLine
 10
-426.2
 20
980.0
 30
0.0
 11
-432.0945
 21
1001.9987
 31
0.0
  0
LINE
  5
3E8
100
AcDbEntity
  8
____1
 62
     7
100
AcDbLine
 10
-426.2
 20
980.0
 30
0.0
 11
-420.3055
 21
1001.9987
 31
0.0
  0
LINE
  5
3E4
100
AcDbEntity
  8
____1
  6
CONTINUOUS
 62
     7
100
AcDbLine
 10
-426.2
 20
1080.0
 30
0.0
 11
-426.2
 21
980.0
 31
0.0
  0
INSERT
  5
3E9
100
AcDbEntity
  8
____1
100
AcDbBlockReference
  2
*G3
 10
0.0
 20
0.0
 30
0.0
  0
LINE
  5
3EA
100
AcDbEntity
  8
____1
  6
CONTINUOUS
 62
     7
100
AcDbLine
 10
-516.2
 20
980.0
 30
0.0
 11
-406.2
 21
980.0
 31
0.0
  0
LINE
  5
3EB
100
AcDbEntity
  8
____1
  6
CONTINUOUS
 62
     7
100
AcDbLine
 10
-516.2
 20
915.0
 30
0.0
 11
-406.2
 21
915.0
 31
0.0
  0
LINE
  5
3ED
100
AcDbEntity
  8
____1
 62
     7
100
AcDbLine
 10
-426.2
 20
980.0
 30
0.0
 11
-420.3055
 21
958.0013
 31
0.0
  0
LINE
  5
3EE
100
AcDbEntity
  8
____1
 62
     7
100
AcDbLine
 10
-426.2
 20
980.0
 30
0.0
 11
-432.0945
 21
958.0013
 31
0.0
  0
LINE
  5
3EF
100
AcDbEntity
  8
____1
 62
     7
100
AcDbLine
 10
-426.2
 20
915.0
 30
0.0
 11
-432.0945
 21
936.9987
 31
0.0
  0
LINE
  5
3F0
100
AcDbEntity
  8
____1
 62
     7
100
AcDbLine
 10
-426.2
 20
915.0
 30
0.0
 11
-420.3055
 21
936.9987
 31
0.0
  0
LINE
  5
3EC
100
AcDbEntity
  8
____1
  6
CONTINUOUS
 62
     7
100
AcDbLine
 10
-426.2
 20
980.0
 30
0.0
 11
-426.2
 21
915.0
 31
0.0
  0
INSERT
  5
3F1
100
AcDbEntity
  8
____1
100
AcDbBlockReference
  2
*G4
 10
0.0
 20
0.0
 30
0.0
  0
LINE
  5
3F2
100
AcDbEntity
  8
____1
  6
CONTINUOUS
 62
     7
100
AcDbLine
 10
-516.2
 20
915.0
 30
0.0
 11
-406.2
 21
915.0
 31
0.0
  0
LINE
  5
3F3
100
AcDbEntity
  8
____1
  6
CONTINUOUS
 62
     7
100
AcDbLine
 10
-516.2
 20
405.0
 30
0.0
 11
-406.2
 21
405.0
 31
0.0
  0
LINE
  5
3F5
100
AcDbEntity
  8
____1
 62
     7
100
AcDbLine
 10
-426.2
 20
915.0
 30
0.0
 11
-420.3055
 21
893.0013
 31
0.0
  0
LINE
  5
3F6
100
AcDbEntity
  8
____1
 62
     7
100
AcDbLine
 10
-426.2
 20
915.0
 30
0.0
 11
-432.0945
 21
893.0013
 31
0.0
  0
LINE
  5
3F7
100
AcDbEntity
  8
____1
 62
     7
100
AcDbLine
 10
-426.2
 20
405.0
 30
0.0
 11
-432.0945
 21
426.9987
 31
0.0
  0
LINE
  5
3F8
100
AcDbEntity
  8
____1
 62
     7
100
AcDbLine
 10
-426.2
 20
405.0
 30
0.0
 11
-420.3055
 21
426.9987
 31
0.0
  0
LINE
  5
3F4
100
AcDbEntity
  8
____1
  6
CONTINUOUS
 62
     7
100
AcDbLine
 10
-426.2
 20
915.0
 30
0.0
 11
-426.2
 21
405.0
 31
0.0
  0
INSERT
  5
3F9
100
AcDbEntity
  8
____1
100
AcDbBlockReference
  2
*G5
 10
0.0
 20
0.0
 30
0.0
  0
LINE
  5
3FA
100
AcDbEntity
  8
____1
  6
CONTINUOUS
 62
     7
100
AcDbLine
 10
-516.2
 20
405.0
 30
0.0
 11
-406.2
 21
405.0
 31
0.0
  0
LINE
  5
3FB
100
AcDbEntity
  8
____1
  6
CONTINUOUS
 62
     7
100
AcDbLine
 10
-516.2
 20
330.0
 30
0.0
 11
-406.2
 21
330.0
 31
0.0
  0
LINE
  5
3FD
100
AcDbEntity
  8
____1
 62
     7
100
AcDbLine
 10
-426.2
 20
405.0
 30
0.0
 11
-420.3055
 21
383.0013
 31
0.0
  0
LINE
  5
3FE
100
AcDbEntity
  8
____1
 62
     7
100
AcDbLine
 10
-426.2
 20
405.0
 30
0.0
 11
-432.0945
 21
383.0013
 31
0.0
  0
LINE
  5
3FF
100
AcDbEntity
  8
____1
 62
     7
100
AcDbLine
 10
-426.2
 20
330.0
 30
0.0
 11
-432.0945
 21
351.9987
 31
0.0
  0
LINE
  5
400
100
AcDbEntity
  8
____1
 62
     7
100
AcDbLine
 10
-426.2
 20
330.0
 30
0.0
 11
-420.3055
 21
351.9987
 31
0.0
  0
LINE
  5
3FC
100
AcDbEntity
  8
____1
  6
CONTINUOUS
 62
     7
100
AcDbLine
 10
-426.2
 20
405.0
 30
0.0
 11
-426.2
 21
330.0
 31
0.0
  0
INSERT
  5
401
100
AcDbEntity
  8
____1
100
AcDbBlockReference
  2
*G6
 10
0.0
 20
0.0
 30
0.0
  0
LINE
  5
402
100
AcDbEntity
  8
____1
  6
CONTINUOUS
 62
     7
100
AcDbLine
 10
-516.2
 20
330.0
 30
0.0
 11
-406.2
 21
330.0
 31
0.0
  0
LINE
  5
403
100
AcDbEntity
  8
____1
  6
CONTINUOUS
 62
     7
100
AcDbLine
 10
-543.2
 20
310.0
 30
0.0
 11
-406.2
 21
310.0
 31
0.0
  0
LINE
  5
405
100
AcDbEntity
  8
____1
 62
     7
100
AcDbLine
 10
-426.2
 20
330.0
 30
0.0
 11
-432.0945
 21
351.9987
 31
0.0
  0
LINE
  5
406
100
AcDbEntity
  8
____1
 62
     7
100
AcDbLine
 10
-426.2
 20
330.0
 30
0.0
 11
-420.3055
 21
351.9987
 31
0.0
  0
LINE
  5
404
100
AcDbEntity
  8
____1
  6
CONTINUOUS
 62
     7
100
AcDbLine
 10
-426.2
 20
330.0
 30
0.0
 11
-426.2
 21
400.0
 31
0.0
  0
LINE
  5
408
100
AcDbEntity
  8
____1
 62
     7
100
AcDbLine
 10
-426.2
 20
310.0
 30
0.0
 11
-420.3055
 21
288.0013
 31
0.0
  0
LINE
  5
409
100
AcDbEntity
  8
____1
 62
     7
100
AcDbLine
 10
-426.2
 20
310.0
 30
0.0
 11
-432.0945
 21
288.0013
 31
0.0
  0
LINE
  5
407
100
AcDbEntity
  8
____1
  6
CONTINUOUS
 62
     7
100
AcDbLine
 10
-426.2
 20
310.0
 30
0.0
 11
-426.2
 21
232.6667
 31
0.0
  0
LINE
  5
40A
100
AcDbEntity
  8
____1
  6
CONTINUOUS
 62
     7
100
AcDbLine
 10
-426.2
 20
310.0
 30
0.0
 11
-426.2
 21
330.0
 31
0.0
  0
INSERT
  5
40B
100
AcDbEntity
  8
____1
100
AcDbBlockReference
  2
*G7
 10
0.0
 20
0.0
 30
0.0
  0
LINE
  5
40C
100
AcDbEntity
  8
____1
  6
CONTINUOUS
 62
     7
100
AcDbLine
 10
-1386.2
 20
320.0
 30
0.0
 11
-1386.2
 21
190.0
 31
0.0
  0
LINE
  5
40D
100
AcDbEntity
  8
____1
  6
CONTINUOUS
 62
     7
100
AcDbLine
 10
-1286.2
 20
320.0
 30
0.0
 11
-1286.2
 21
190.0
 31
0.0
  0
LINE
  5
40F
100
AcDbEntity
  8
____1
 62
     7
100
AcDbLine
 10
-1386.2
 20
210.0
 30
0.0
 11
-1364.2013
 21
215.8945
 31
0.0
  0
LINE
  5
410
100
AcDbEntity
  8
____1
 62
     7
100
AcDbLine
 10
-1386.2
 20
210.0
 30
0.0
 11
-1364.2013
 21
204.1055
 31
0.0
  0
LINE
  5
411
100
AcDbEntity
  8
____1
 62
     7
100
AcDbLine
 10
-1286.2
 20
210.0
 30
0.0
 11
-1308.1987
 21
204.1055
 31
0.0
  0
LINE
  5
412
100
AcDbEntity
  8
____1
 62
     7
100
AcDbLine
 10
-1286.2
 20
210.0
 30
0.0
 11
-1308.1987
 21
215.8945
 31
0.0
  0
LINE
  5
40E
100
AcDbEntity
  8
____1
  6
CONTINUOUS
 62
     7
100
AcDbLine
 10
-1386.2
 20
210.0
 30
0.0
 11
-1286.2
 21
210.0
 31
0.0
  0
INSERT
  5
413
100
AcDbEntity
  8
____1
100
AcDbBlockReference
  2
*G8
 10
0.0
 20
0.0
 30
0.0
  0
LINE
  5
414
100
AcDbEntity
  8
____1
  6
CONTINUOUS
 62
     7
100
AcDbLine
 10
-1286.2
 20
320.0
 30
0.0
 11
-1286.2
 21
190.0
 31
0.0
  0
LINE
  5
415
100
AcDbEntity
  8
____1
  6
CONTINUOUS
 62
     7
100
AcDbLine
 10
-1226.2
 20
320.0
 30
0.0
 11
-1226.2
 21
190.0
 31
0.0
  0
LINE
  5
417
100
AcDbEntity
  8
____1
 62
     7
100
AcDbLine
 10
-1286.2
 20
210.0
 30
0.0
 11
-1264.2013
 21
215.8945
 31
0.0
  0
LINE
  5
418
100
AcDbEntity
  8
____1
 62
     7
100
AcDbLine
 10
-1286.2
 20
210.0
 30
0.0
 11
-1264.2013
 21
204.1055
 31
0.0
  0
LINE
  5
419
100
AcDbEntity
  8
____1
 62
     7
100
AcDbLine
 10
-1226.2
 20
210.0
 30
0.0
 11
-1248.1987
 21
204.1055
 31
0.0
  0
LINE
  5
41A
100
AcDbEntity
  8
____1
 62
     7
100
AcDbLine
 10
-1226.2
 20
210.0
 30
0.0
 11
-1248.1987
 21
215.8945
 31
0.0
  0
LINE
  5
416
100
AcDbEntity
  8
____1
  6
CONTINUOUS
 62
     7
100
AcDbLine
 10
-1286.2
 20
210.0
 30
0.0
 11
-1226.2
 21
210.0
 31
0.0
  0
INSERT
  5
41B
100
AcDbEntity
  8
____1
100
AcDbBlockReference
  2
*G9
 10
0.0
 20
0.0
 30
0.0
  0
LINE
  5
41C
100
AcDbEntity
  8
____1
  6
CONTINUOUS
 62
     7
100
AcDbLine
 10
-1226.2
 20
320.0
 30
0.0
 11
-1226.2
 21
190.0
 31
0.0
  0
LINE
  5
41D
100
AcDbEntity
  8
____1
  6
CONTINUOUS
 62
     7
100
AcDbLine
 10
-706.2
 20
320.0
 30
0.0
 11
-706.2
 21
190.0
 31
0.0
  0
LINE
  5
41F
100
AcDbEntity
  8
____1
 62
     7
100
AcDbLine
 10
-1226.2
 20
210.0
 30
0.0
 11
-1204.2013
 21
215.8945
 31
0.0
  0
LINE
  5
420
100
AcDbEntity
  8
____1
 62
     7
100
AcDbLine
 10
-1226.2
 20
210.0
 30
0.0
 11
-1204.2013
 21
204.1055
 31
0.0
  0
LINE
  5
421
100
AcDbEntity
  8
____1
 62
     7
100
AcDbLine
 10
-706.2
 20
210.0
 30
0.0
 11
-728.1987
 21
204.1055
 31
0.0
  0
LINE
  5
422
100
AcDbEntity
  8
____1
 62
     7
100
AcDbLine
 10
-706.2
 20
210.0
 30
0.0
 11
-728.1987
 21
215.8945
 31
0.0
  0
LINE
  5
41E
100
AcDbEntity
  8
____1
  6
CONTINUOUS
 62
     7
100
AcDbLine
 10
-1226.2
 20
210.0
 30
0.0
 11
-706.2
 21
210.0
 31
0.0
  0
INSERT
  5
423
100
AcDbEntity
  8
____1
100
AcDbBlockReference
  2
*G10
 10
0.0
 20
0.0
 30
0.0
  0
LINE
  5
424
100
AcDbEntity
  8
____1
  6
CONTINUOUS
 62
     7
100
AcDbLine
 10
-706.2
 20
320.0
 30
0.0
 11
-706.2
 21
190.0
 31
0.0
  0
LINE
  5
425
100
AcDbEntity
  8
____1
  6
CONTINUOUS
 62
     7
100
AcDbLine
 10
-526.2
 20
320.0
 30
0.0
 11
-526.2
 21
190.0
 31
0.0
  0
LINE
  5
427
100
AcDbEntity
  8
____1
 62
     7
100
AcDbLine
 10
-706.2
 20
210.0
 30
0.0
 11
-684.2013
 21
215.8945
 31
0.0
  0
LINE
  5
428
100
AcDbEntity
  8
____1
 62
     7
100
AcDbLine
 10
-706.2
 20
210.0
 30
0.0
 11
-684.2013
 21
204.1055
 31
0.0
  0
LINE
  5
429
100
AcDbEntity
  8
____1
 62
     7
100
AcDbLine
 10
-526.2
 20
210.0
 30
0.0
 11
-548.1987
 21
204.1055
 31
0.0
  0
LINE
  5
42A
100
AcDbEntity
  8
____1
 62
     7
100
AcDbLine
 10
-526.2
 20
210.0
 30
0.0
 11
-548.1987
 21
215.8945
 31
0.0
  0
LINE
  5
426
100
AcDbEntity
  8
____1
  6
CONTINUOUS
 62
     7
100
AcDbLine
 10
-706.2
 20
210.0
 30
0.0
 11
-526.2
 21
210.0
 31
0.0
  0
INSERT
  5
42B
100
AcDbEntity
  8
____1
100
AcDbBlockReference
  2
*G11
 10
0.0
 20
0.0
 30
0.0
  0
LINE
  5
42C
100
AcDbEntity
  8
____1
  6
CONTINUOUS
 62
     7
100
AcDbLine
 10
-1031.2
 20
740.0
 30
0.0
 11
-1031.2
 21
811.0
 31
0.0
  0
LINE
  5
42D
100
AcDbEntity
  8
____1
  6
CONTINUOUS
 62
     7
100
AcDbLine
 10
-1386.2
 20
740.0
 30
0.0
 11
-1386.2
 21
811.0
 31
0.0
  0
LINE
  5
42F
100
AcDbEntity
  8
____1
 62
     7
100
AcDbLine
 10
-1031.2
 20
791.0
 30
0.0
 11
-1053.1987
 21
785.1055
 31
0.0
  0
LINE
  5
430
100
AcDbEntity
  8
____1
 62
     7
100
AcDbLine
 10
-1031.2
 20
791.0
 30
0.0
 11
-1053.1987
 21
796.8945
 31
0.0
  0
LINE
  5
431
100
AcDbEntity
  8
____1
 62
     7
100
AcDbLine
 10
-1386.2
 20
791.0
 30
0.0
 11
-1364.2013
 21
796.8945
 31
0.0
  0
LINE
  5
432
100
AcDbEntity
  8
____1
 62
     7
100
AcDbLine
 10
-1386.2
 20
791.0
 30
0.0
 11
-1364.2013
 21
785.1055
 31
0.0
  0
LINE
  5
42E
100
AcDbEntity
  8
____1
  6
CONTINUOUS
 62
     7
100
AcDbLine
 10
-1031.2
 20
791.0
 30
0.0
 11
-1386.2
 21
791.0
 31
0.0
  0
INSERT
  5
433
100
AcDbEntity
  8
____1
100
AcDbBlockReference
  2
*G12
 10
0.0
 20
0.0
 30
0.0
  0
LINE
  5
434
100
AcDbEntity
  8
____1
  6
CONTINUOUS
 62
     7
100
AcDbLine
 10
-516.2
 20
-120.0
 30
0.0
 11
-406.2
 21
-120.0
 31
0.0
  0
LINE
  5
435
100
AcDbEntity
  8
____1
  6
CONTINUOUS
 62
     7
100
AcDbLine
 10
-516.2
 20
-270.0
 30
0.0
 11
-406.2
 21
-270.0
 31
0.0
  0
LINE
  5
437
100
AcDbEntity
  8
____1
 62
     7
100
AcDbLine
 10
-426.2
 20
-120.0
 30
0.0
 11
-420.3055
 21
-141.9987
 31
0.0
  0
LINE
  5
438
100
AcDbEntity
  8
____1
 62
     7
100
AcDbLine
 10
-426.2
 20
-120.0
 30
0.0
 11
-432.0945
 21
-141.9987
 31
0.0
  0
LINE
  5
439
100
AcDbEntity
  8
____1
 62
     7
100
AcDbLine
 10
-426.2
 20
-270.0
 30
0.0
 11
-432.0945
 21
-248.0013
 31
0.0
  0
LINE
  5
43A
100
AcDbEntity
  8
____1
 62
     7
100
AcDbLine
 10
-426.2
 20
-270.0
 30
0.0
 11
-420.3055
 21
-248.0013
 31
0.0
  0
LINE
  5
436
100
AcDbEntity
  8
____1
  6
CONTINUOUS
 62
     7
100
AcDbLine
 10
-426.2
 20
-120.0
 30
0.0
 11
-426.2
 21
-270.0
 31
0.0
  0
INSERT
  5
43B
100
AcDbEntity
  8
____1
100
AcDbBlockReference
  2
*G13
 10
0.0
 20
0.0
 30
0.0
  0
LINE
  5
43C
100
AcDbEntity
  8
____1
  6
CONTINUOUS
 62
     7
100
AcDbLine
 10
-516.2
 20
-270.0
 30
0.0
 11
-406.2
 21
-270.0
 31
0.0
  0
LINE
  5
43D
100
AcDbEntity
  8
____1
  6
CONTINUOUS
 62
     7
100
AcDbLine
 10
-516.2
 20
-290.0
 30
0.0
 11
-406.2
 21
-290.0
 31
0.0
  0
LINE
  5
43F
100
AcDbEntity
  8
____1
 62
     7
100
AcDbLine
 10
-426.2
 20
-270.0
 30
0.0
 11
-432.0945
 21
-248.0013
 31
0.0
  0
LINE
  5
440
100
AcDbEntity
  8
____1
 62
     7
100
AcDbLine
 10
-426.2
 20
-270.0
 30
0.0
 11
-420.3055
 21
-248.0013
 31
0.0
  0
LINE
  5
43E
100
AcDbEntity
  8
____1
  6
CONTINUOUS
 62
     7
100
AcDbLine
 10
-426.2
 20
-270.0
 30
0.0
 11
-426.2
 21
-200.0
 31
0.0
  0
LINE
  5
442
100
AcDbEntity
  8
____1
 62
     7
100
AcDbLine
 10
-426.2
 20
-290.0
 30
0.0
 11
-420.3055
 21
-311.9987
 31
0.0
  0
LINE
  5
443
100
AcDbEntity
  8
____1
 62
     7
100
AcDbLine
 10
-426.2
 20
-290.0
 30
0.0
 11
-432.0945
 21
-311.9987
 31
0.0
  0
LINE
  5
441
100
AcDbEntity
  8
____1
  6
CONTINUOUS
 62
     7
100
AcDbLine
 10
-426.2
 20
-290.0
 30
0.0
 11
-426.2
 21
-360.0
 31
0.0
  0
LINE
  5
444
100
AcDbEntity
  8
____1
  6
CONTINUOUS
 62
     7
100
AcDbLine
 10
-426.2
 20
-290.0
 30
0.0
 11
-426.2
 21
-270.0
 31
0.0
  0
INSERT
  5
445
100
AcDbEntity
  8
____1
100
AcDbBlockReference
  2
*G14
 10
0.0
 20
0.0
 30
0.0
  0
LINE
  5
446
100
AcDbEntity
  8
____1
  6
CONTINUOUS
 62
     7
100
AcDbLine
 10
-516.2
 20
-290.0
 30
0.0
 11
-406.2
 21
-290.0
 31
0.0
  0
LINE
  5
447
100
AcDbEntity
  8
____1
  6
CONTINUOUS
 62
     7
100
AcDbLine
 10
-536.2
 20
-1090.0
 30
0.0
 11
-406.2
 21
-1090.0
 31
0.0
  0
LINE
  5
449
100
AcDbEntity
  8
____1
 62
     7
100
AcDbLine
 10
-426.2
 20
-290.0
 30
0.0
 11
-420.3055
 21
-311.9987
 31
0.0
  0
LINE
  5
44A
100
AcDbEntity
  8
____1
 62
     7
100
AcDbLine
 10
-426.2
 20
-290.0
 30
0.0
 11
-432.0945
 21
-311.9987
 31
0.0
  0
LINE
  5
44B
100
AcDbEntity
  8
____1
 62
     7
100
AcDbLine
 10
-426.2
 20
-1090.0
 30
0.0
 11
-432.0945
 21
-1068.0013
 31
0.0
  0
LINE
  5
44C
100
AcDbEntity
  8
____1
 62
     7
100
AcDbLine
 10
-426.2
 20
-1090.0
 30
0.0
 11
-420.3055
 21
-1068.0013
 31
0.0
  0
LINE
  5
448
100
AcDbEntity
  8
____1
  6
CONTINUOUS
 62
     7
100
AcDbLine
 10
-426.2
 20
-290.0
 30
0.0
 11
-426.2
 21
-1090.0
 31
0.0
  0
INSERT
  5
44D
100
AcDbEntity
  8
____1
100
AcDbBlockReference
  2
*G15
 10
0.0
 20
0.0
 30
0.0
  0
LINE
  5
44E
100
AcDbEntity
  8
____1
  6
CONTINUOUS
 62
     7
100
AcDbLine
 10
-553.2
 20
-368.0
 30
0.0
 11
-553.2
 21
-456.0
 31
0.0
  0
LINE
  5
44F
100
AcDbEntity
  8
____1
  6
CONTINUOUS
 62
     7
100
AcDbLine
 10
-527.2
 20
-320.0
 30
0.0
 11
-527.2
 21
-456.0
 31
0.0
  0
LINE
  5
451
100
AcDbEntity
  8
____1
 62
     7
100
AcDbLine
 10
-553.2
 20
-436.0
 30
0.0
 11
-575.1987
 21
-441.8945
 31
0.0
  0
LINE
  5
452
100
AcDbEntity
  8
____1
 62
     7
100
AcDbLine
 10
-553.2
 20
-436.0
 30
0.0
 11
-575.1987
 21
-430.1055
 31
0.0
  0
LINE
  5
450
100
AcDbEntity
  8
____1
  6
CONTINUOUS
 62
     7
100
AcDbLine
 10
-553.2
 20
-436.0
 30
0.0
 11
-750.6444
 21
-436.0
 31
0.0
  0
LINE
  5
454
100
AcDbEntity
  8
____1
 62
     7
100
AcDbLine
 10
-527.2
 20
-436.0
 30
0.0
 11
-505.2013
 21
-430.1055
 31
0.0
  0
LINE
  5
455
100
AcDbEntity
  8
____1
 62
     7
100
AcDbLine
 10
-527.2
 20
-436.0
 30
0.0
 11
-505.2013
 21
-441.8945
 31
0.0
  0
LINE
  5
453
100
AcDbEntity
  8
____1
  6
CONTINUOUS
 62
     7
100
AcDbLine
 10
-527.2
 20
-436.0
 30
0.0
 11
-457.2
 21
-436.0
 31
0.0
  0
LINE
  5
456
100
AcDbEntity
  8
____1
  6
CONTINUOUS
 62
     7
100
AcDbLine
 10
-527.2
 20
-436.0
 30
0.0
 11
-553.2
 21
-436.0
 31
0.0
  0
INSERT
  5
457
100
AcDbEntity
  8
____1
100
AcDbBlockReference
  2
*G16
 10
0.0
 20
0.0
 30
0.0
  0
LINE
  5
458
100
AcDbEntity
  8
____1
  6
CONTINUOUS
 62
     7
100
AcDbLine
 10
618.8
 20
318.0
 30
0.0
 11
618.8
 21
194.0
 31
0.0
  0
LINE
  5
459
100
AcDbEntity
  8
____1
  6
CONTINUOUS
 62
     7
100
AcDbLine
 10
583.8
 20
303.0
 30
0.0
 11
583.8
 21
194.0
 31
0.0
  0
LINE
  5
45B
100
AcDbEntity
  8
____1
 62
     7
100
AcDbLine
 10
618.8
 20
214.0
 30
0.0
 11
640.7987
 21
219.8945
 31
0.0
  0
LINE
  5
45C
100
AcDbEntity
  8
____1
 62
     7
100
AcDbLine
 10
618.8
 20
214.0
 30
0.0
 11
640.7987
 21
208.1055
 31
0.0
  0
LINE
  5
45A
100
AcDbEntity
  8
____1
  6
CONTINUOUS
 62
     7
100
AcDbLine
 10
618.8
 20
214.0
 30
0.0
 11
688.8
 21
214.0
 31
0.0
  0
LINE
  5
45E
100
AcDbEntity
  8
____1
 62
     7
100
AcDbLine
 10
583.8
 20
214.0
 30
0.0
 11
561.8013
 21
208.1055
 31
0.0
  0
LINE
  5
45F
100
AcDbEntity
  8
____1
 62
     7
100
AcDbLine
 10
583.8
 20
214.0
 30
0.0
 11
561.8013
 21
219.8945
 31
0.0
  0
LINE
  5
45D
100
AcDbEntity
  8
____1
  6
CONTINUOUS
 62
     7
100
AcDbLine
 10
583.8
 20
214.0
 30
0.0
 11
513.4667
 21
214.0
 31
0.0
  0
LINE
  5
460
100
AcDbEntity
  8
____1
  6
CONTINUOUS
 62
     7
100
AcDbLine
 10
583.8
 20
214.0
 30
0.0
 11
618.8
 21
214.0
 31
0.0
  0
INSERT
  5
461
100
AcDbEntity
  8
____1
100
AcDbBlockReference
  2
*G17
 10
0.0
 20
0.0
 30
0.0
  0
LINE
  5
462
100
AcDbEntity
  8
____1
  6
CONTINUOUS
 62
     7
100
AcDbLine
 10
583.8
 20
303.0
 30
0.0
 11
583.8
 21
114.0
 31
0.0
  0
LINE
  5
463
100
AcDbEntity
  8
____1
  6
CONTINUOUS
 62
     7
100
AcDbLine
 10
653.8
 20
358.0
 30
0.0
 11
653.8
 21
114.0
 31
0.0
  0
LINE
  5
465
100
AcDbEntity
  8
____1
 62
     7
100
AcDbLine
 10
583.8
 20
134.0
 30
0.0
 11
605.7987
 21
139.8945
 31
0.0
  0
LINE
  5
466
100
AcDbEntity
  8
____1
 62
     7
100
AcDbLine
 10
583.8
 20
134.0
 30
0.0
 11
605.7987
 21
128.1055
 31
0.0
  0
LINE
  5
467
100
AcDbEntity
  8
____1
 62
     7
100
AcDbLine
 10
653.8
 20
134.0
 30
0.0
 11
631.8013
 21
128.1055
 31
0.0
  0
LINE
  5
468
100
AcDbEntity
  8
____1
 62
     7
100
AcDbLine
 10
653.8
 20
134.0
 30
0.0
 11
631.8013
 21
139.8945
 31
0.0
  0
LINE
  5
464
100
AcDbEntity
  8
____1
  6
CONTINUOUS
 62
     7
100
AcDbLine
 10
583.8
 20
134.0
 30
0.0
 11
653.8
 21
134.0
 31
0.0
  0
INSERT
  5
469
100
AcDbEntity
  8
____1
100
AcDbBlockReference
  2
*G18
 10
0.0
 20
0.0
 30
0.0
  0
LINE
  5
46A
100
AcDbEntity
  8
____1
  6
CONTINUOUS
 62
     7
100
AcDbLine
 10
653.8
 20
358.0
 30
0.0
 11
653.8
 21
114.0
 31
0.0
  0
LINE
  5
46B
100
AcDbEntity
  8
____1
  6
CONTINUOUS
 62
     7
100
AcDbLine
 10
738.8
 20
620.5
 30
0.0
 11
738.8
 21
114.0
 31
0.0
  0
LINE
  5
46D
100
AcDbEntity
  8
____1
 62
     7
100
AcDbLine
 10
653.8
 20
134.0
 30
0.0
 11
675.7987
 21
139.8945
 31
0.0
  0
LINE
  5
46E
100
AcDbEntity
  8
____1
 62
     7
100
AcDbLine
 10
653.8
 20
134.0
 30
0.0
 11
675.7987
 21
128.1055
 31
0.0
  0
LINE
  5
46F
100
AcDbEntity
  8
____1
 62
     7
100
AcDbLine
 10
738.8
 20
134.0
 30
0.0
 11
716.8013
 21
128.1055
 31
0.0
  0
LINE
  5
470
100
AcDbEntity
  8
____1
 62
     7
100
AcDbLine
 10
738.8
 20
134.0
 30
0.0
 11
716.8013
 21
139.8945
 31
0.0
  0
LINE
  5
46C
100
AcDbEntity
  8
____1
  6
CONTINUOUS
 62
     7
100
AcDbLine
 10
653.8
 20
134.0
 30
0.0
 11
738.8
 21
134.0
 31
0.0
  0
INSERT
  5
471
100
AcDbEntity
  8
____1
100
AcDbBlockReference
  2
*G19
 10
0.0
 20
0.0
 30
0.0
  0
LINE
  5
472
100
AcDbEntity
  8
____1
  6
CONTINUOUS
 62
     7
100
AcDbLine
 10
413.8
 20
320.0
 30
0.0
 11
413.8
 21
34.0
 31
0.0
  0
LINE
  5
473
100
AcDbEntity
  8
____1
  6
CONTINUOUS
 62
     7
100
AcDbLine
 10
1383.8
 20
320.0
 30
0.0
 11
1383.8
 21
34.0
 31
0.0
  0
LINE
  5
475
100
AcDbEntity
  8
____1
 62
     7
100
AcDbLine
 10
413.8
 20
54.0
 30
0.0
 11
435.7987
 21
59.8945
 31
0.0
  0
LINE
  5
476
100
AcDbEntity
  8
____1
 62
     7
100
AcDbLine
 10
413.8
 20
54.0
 30
0.0
 11
435.7987
 21
48.1055
 31
0.0
  0
LINE
  5
477
100
AcDbEntity
  8
____1
 62
     7
100
AcDbLine
 10
1383.8
 20
54.0
 30
0.0
 11
1361.8013
 21
48.1055
 31
0.0
  0
LINE
  5
478
100
AcDbEntity
  8
____1
 62
     7
100
AcDbLine
 10
1383.8
 20
54.0
 30
0.0
 11
1361.8013
 21
59.8945
 31
0.0
  0
LINE
  5
474
100
AcDbEntity
  8
____1
  6
CONTINUOUS
 62
     7
100
AcDbLine
 10
413.8
 20
54.0
 30
0.0
 11
1383.8
 21
54.0
 31
0.0
  0
INSERT
  5
479
100
AcDbEntity
  8
____1
100
AcDbBlockReference
  2
*G20
 10
0.0
 20
0.0
 30
0.0
  0
TEXT
  5
47A
100
AcDbEntity
  8
____1
 62
     7
100
AcDbText
 10
-137.579
 20
884.0648
 30
0.0
 40
27.1322
  1
駆動軸
 11
-137.579
 21
911.197
 31
0.0
100
AcDbText
 73
     3
  0
TEXT
  5
47B
100
AcDbEntity
  8
____1
 62
     7
100
AcDbText
 10
-237.0852
 20
479.0957
 30
0.0
 40
27.1322
  1
ラック送り爪
 11
-237.0852
 21
506.2279
 31
0.0
100
AcDbText
 73
     3
  0
TEXT
  5
47C
100
AcDbEntity
  8
____1
 62
     7
100
AcDbText
 10
944.6392
 20
1153.6845
 30
0.0
 40
27.1322
  1
排水口　40Aめす
 11
944.6392
 21
1180.8167
 31
0.0
100
AcDbText
 73
     3
  0
LINE
  5
47D
100
AcDbEntity
  8
____1
  6
CONTINUOUS
 62
     7
100
AcDbLine
 10
-27.7
 20
871.303
 30
0.0
 11
-144.579
 21
871.303
 31
0.0
  0
LINE
  5
47F
100
AcDbEntity
  8
____1
 62
     7
100
AcDbLine
 10
-486.2
 20
665.0
 30
0.0
 11
-470.3794
 21
681.3827
 31
0.0
  0
LINE
  5
480
100
AcDbEntity
  8
____1
 62
     7
100
AcDbLine
 10
-486.2
 20
665.0
 30
0.0
 11
-464.3076
 21
671.2776
 31
0.0
  0
LINE
  5
47E
100
AcDbEntity
  8
____1
  6
CONTINUOUS
 62
     7
100
AcDbLine
 10
-144.579
 20
871.303
 30
0.0
 11
-486.2
 21
665.0
 31
0.0
  0
LINE
  5
481
100
AcDbEntity
  8
____1
  6
CONTINUOUS
 62
     7
100
AcDbLine
 10
-24.7
 20
466.3339
 30
0.0
 11
-242.0852
 21
466.3339
 31
0.0
  0
LINE
  5
483
100
AcDbEntity
  8
____1
 62
     7
100
AcDbLine
 10
-801.2
 20
642.0
 30
0.0
 11
-778.4565
 21
640.8081
 31
0.0
  0
LINE
  5
484
100
AcDbEntity
  8
____1
 62
     7
100
AcDbLine
 10
-801.2
 20
642.0
 30
0.0
 11
-782.0995
 21
629.596
 31
0.0
  0
LINE
  5
482
100
AcDbEntity
  8
____1
  6
CONTINUOUS
 62
     7
100
AcDbLine
 10
-242.0852
 20
466.3339
 30
0.0
 11
-801.2
 21
642.0
 31
0.0
  0
LINE
  5
485
100
AcDbEntity
  8
____1
  6
CONTINUOUS
 62
     7
100
AcDbLine
 10
1219.3
 20
1140.9227
 30
0.0
 11
943.1392
 21
1140.9227
 31
0.0
  0
LINE
  5
487
100
AcDbEntity
  8
____1
 62
     7
100
AcDbLine
 10
738.8
 20
659.0
 30
0.0
 11
741.9696
 21
681.5531
 31
0.0
  0
LINE
  5
488
100
AcDbEntity
  8
____1
 62
     7
100
AcDbLine
 10
738.8
 20
659.0
 30
0.0
 11
752.8215
 21
676.9467
 31
0.0
  0
LINE
  5
486
100
AcDbEntity
  8
____1
  6
CONTINUOUS
 62
     7
100
AcDbLine
 10
943.1392
 20
1140.9227
 30
0.0
 11
738.8
 21
659.0
 31
0.0
  0
LINE
  5
489
100
AcDbEntity
  8
____1
  6
CONTINUOUS
 62
     7
100
AcDbLine
 10
583.8
 20
810.0
 30
0.0
 11
475.8
 21
810.0
 31
0.0
  0
LINE
  5
48A
100
AcDbEntity
  8
____1
  6
CONTINUOUS
 62
     7
100
AcDbLine
 10
583.8
 20
510.0
 30
0.0
 11
475.8
 21
510.0
 31
0.0
  0
LINE
  5
48C
100
AcDbEntity
  8
____1
 62
     7
100
AcDbLine
 10
495.8
 20
810.0
 30
0.0
 11
501.6945
 21
788.0013
 31
0.0
  0
LINE
  5
48D
100
AcDbEntity
  8
____1
 62
     7
100
AcDbLine
 10
495.8
 20
810.0
 30
0.0
 11
489.9055
 21
788.0013
 31
0.0
  0
LINE
  5
48E
100
AcDbEntity
  8
____1
 62
     7
100
AcDbLine
 10
495.8
 20
510.0
 30
0.0
 11
489.9055
 21
531.9987
 31
0.0
  0
LINE
  5
48F
100
AcDbEntity
  8
____1
 62
     7
100
AcDbLine
 10
495.8
 20
510.0
 30
0.0
 11
501.6945
 21
531.9987
 31
0.0
  0
LINE
  5
48B
100
AcDbEntity
  8
____1
  6
CONTINUOUS
 62
     7
100
AcDbLine
 10
495.8
 20
810.0
 30
0.0
 11
495.8
 21
510.0
 31
0.0
  0
INSERT
  5
490
100
AcDbEntity
  8
____1
100
AcDbBlockReference
  2
*G21
 10
0.0
 20
0.0
 30
0.0
  0
LINE
  5
491
100
AcDbEntity
  8
____1
  6
CONTINUOUS
 62
     7
100
AcDbLine
 10
583.8
 20
838.0
 30
0.0
 11
583.8
 21
870.1666
 31
0.0
  0
LINE
  5
492
100
AcDbEntity
  8
____1
  6
CONTINUOUS
 62
     7
100
AcDbLine
 10
593.8
 20
823.0
 30
0.0
 11
593.8
 21
870.1666
 31
0.0
  0
LINE
  5
494
100
AcDbEntity
  8
____1
 62
     7
100
AcDbLine
 10
583.8
 20
850.1666
 30
0.0
 11
561.8013
 21
844.2721
 31
0.0
  0
LINE
  5
495
100
AcDbEntity
  8
____1
 62
     7
100
AcDbLine
 10
583.8
 20
850.1666
 30
0.0
 11
561.8013
 21
856.0611
 31
0.0
  0
LINE
  5
493
100
AcDbEntity
  8
____1
  6
CONTINUOUS
 62
     7
100
AcDbLine
 10
583.8
 20
850.1666
 30
0.0
 11
506.4667
 21
850.1666
 31
0.0
  0
LINE
  5
497
100
AcDbEntity
  8
____1
 62
     7
100
AcDbLine
 10
593.8
 20
850.1666
 30
0.0
 11
615.7987
 21
856.0611
 31
0.0
  0
LINE
  5
498
100
AcDbEntity
  8
____1
 62
     7
100
AcDbLine
 10
593.8
 20
850.1666
 30
0.0
 11
615.7987
 21
844.2721
 31
0.0
  0
LINE
  5
496
100
AcDbEntity
  8
____1
  6
CONTINUOUS
 62
     7
100
AcDbLine
 10
593.8
 20
850.1666
 30
0.0
 11
663.8
 21
850.1666
 31
0.0
  0
LINE
  5
499
100
AcDbEntity
  8
____1
  6
CONTINUOUS
 62
     7
100
AcDbLine
 10
593.8
 20
850.1666
 30
0.0
 11
583.8
 21
850.1666
 31
0.0
  0
INSERT
  5
49A
100
AcDbEntity
  8
____1
100
AcDbBlockReference
  2
*G22
 10
0.0
 20
0.0
 30
0.0
  0
LINE
  5
49B
100
AcDbEntity
  8
____1
  6
CONTINUOUS
 62
     7
100
AcDbLine
 10
583.8
 20
937.5
 30
0.0
 11
583.8
 21
886.0
 31
0.0
  0
LINE
  5
49C
100
AcDbEntity
  8
____1
  6
CONTINUOUS
 62
     7
100
AcDbLine
 10
603.8
 20
940.0
 30
0.0
 11
603.8
 21
886.0
 31
0.0
  0
LINE
  5
49E
100
AcDbEntity
  8
____1
 62
     7
100
AcDbLine
 10
583.8
 20
906.0
 30
0.0
 11
561.8013
 21
900.1055
 31
0.0
  0
LINE
  5
49F
100
AcDbEntity
  8
____1
 62
     7
100
AcDbLine
 10
583.8
 20
906.0
 30
0.0
 11
561.8013
 21
911.8945
 31
0.0
  0
LINE
  5
49D
100
AcDbEntity
  8
____1
  6
CONTINUOUS
 62
     7
100
AcDbLine
 10
583.8
 20
906.0
 30
0.0
 11
507.4667
 21
906.0
 31
0.0
  0
LINE
  5
4A1
100
AcDbEntity
  8
____1
 62
     7
100
AcDbLine
 10
603.8
 20
906.0
 30
0.0
 11
625.7987
 21
911.8945
 31
0.0
  0
LINE
  5
4A2
100
AcDbEntity
  8
____1
 62
     7
100
AcDbLine
 10
603.8
 20
906.0
 30
0.0
 11
625.7987
 21
900.1055
 31
0.0
  0
LINE
  5
4A0
100
AcDbEntity
  8
____1
  6
CONTINUOUS
 62
     7
100
AcDbLine
 10
603.8
 20
906.0
 30
0.0
 11
673.8
 21
906.0
 31
0.0
  0
LINE
  5
4A3
100
AcDbEntity
  8
____1
  6
CONTINUOUS
 62
     7
100
AcDbLine
 10
603.8
 20
906.0
 30
0.0
 11
583.8
 21
906.0
 31
0.0
  0
INSERT
  5
4A4
100
AcDbEntity
  8
____1
100
AcDbBlockReference
  2
*G23
 10
0.0
 20
0.0
 30
0.0
  0
LINE
  5
4A5
100
AcDbEntity
  8
____1
  6
CONTINUOUS
 62
     7
100
AcDbLine
 10
244.3
 20
401.0
 30
0.0
 11
361.3
 21
401.0
 31
0.0
  0
LINE
  5
4A7
100
AcDbEntity
  8
____1
 62
     7
100
AcDbLine
 10
590.8
 20
507.0
 30
0.0
 11
573.1007
 21
492.6674
 31
0.0
  0
LINE
  5
4A8
100
AcDbEntity
  8
____1
 62
     7
100
AcDbLine
 10
590.8
 20
507.0
 30
0.0
 11
568.3057
 21
503.4373
 31
0.0
  0
LINE
  5
4A6
100
AcDbEntity
  8
____1
  6
CONTINUOUS
 62
     7
100
AcDbLine
 10
361.3
 20
401.0
 30
0.0
 11
590.8
 21
507.0
 31
0.0
  0
TEXT
  5
4A9
100
AcDbEntity
  8
____1
 62
     7
100
AcDbText
 10
265.1272
 20
414.9588
 30
0.0
 40
28.1651
  1
2-φ6
 11
265.1272
 21
443.1239
 31
0.0
100
AcDbText
 73
     3
  0
LINE
  5
4AA
100
AcDbEntity
  8
____1
  6
CONTINUOUS
 62
     7
100
AcDbLine
 10
-1296.2
 20
660.0
 30
0.0
 11
-1506.2
 21
660.0
 31
0.0
  0
LINE
  5
4AB
100
AcDbEntity
  8
____1
  6
CONTINUOUS
 62
     7
100
AcDbLine
 10
-1396.2
 20
1080.0
 30
0.0
 11
-1506.2
 21
1080.0
 31
0.0
  0
LINE
  5
4AD
100
AcDbEntity
  8
____1
 62
     7
100
AcDbLine
 10
-1486.2
 20
660.0
 30
0.0
 11
-1492.0945
 21
681.9987
 31
0.0
  0
LINE
  5
4AE
100
AcDbEntity
  8
____1
 62
     7
100
AcDbLine
 10
-1486.2
 20
660.0
 30
0.0
 11
-1480.3055
 21
681.9987
 31
0.0
  0
LINE
  5
4AF
100
AcDbEntity
  8
____1
 62
     7
100
AcDbLine
 10
-1486.2
 20
1080.0
 30
0.0
 11
-1480.3055
 21
1058.0013
 31
0.0
  0
LINE
  5
4B0
100
AcDbEntity
  8
____1
 62
     7
100
AcDbLine
 10
-1486.2
 20
1080.0
 30
0.0
 11
-1492.0945
 21
1058.0013
 31
0.0
  0
LINE
  5
4AC
100
AcDbEntity
  8
____1
  6
CONTINUOUS
 62
     7
100
AcDbLine
 10
-1486.2
 20
660.0
 30
0.0
 11
-1486.2
 21
1080.0
 31
0.0
  0
INSERT
  5
4B1
100
AcDbEntity
  8
____1
100
AcDbBlockReference
  2
*G24
 10
0.0
 20
0.0
 30
0.0
  0
ENDSEC
  0
SECTION
  2
OBJECTS
  0
DICTIONARY
  5
19
100
AcDbDictionary
  3
ACAD_GROUP
350
1A
  3
ACAD_MLINESTYLE
350
1B
  0
DICTIONARY
  5
1A
102
{ACAD_REACTORS
330
19
102
}
100
AcDbDictionary
  0
DICTIONARY
  5
1B
102
{ACAD_REACTORS
330
19
102
}
100
AcDbDictionary
  3
STANDARD
350
1C
  0
MLINESTYLE
  5
1C
102
{ACAD_REACTORS
330
1B
102
}
100
AcDbMlineStyle
  2
STANDARD
 70
     0
  3

 62
     0
 51
90.0
 52
90.0
 71
     2
 49
0.5
 62
   256
  6
BYLAYER
 49
-0.5
 62
   256
  6
BYLAYER
  0
ENDSEC
  0
EOF
