  0
SECTION
  2
HEADER
  9
$ACADVER
  1
AC1009
  9
$INSBASE
 10
0.0
 20
0.0
 30
0.0
  9
$EXTMIN
 10
-1955.632
 20
-1360.3393
 30
0.0
  9
$EXTMAX
 10
1954.608
 20
1360.0
 30
0.0
  9
$LIMMIN
 10
0.0
 20
0.0
  9
$LIMMAX
 10
12.0
 20
9.0
  9
$ORTHOMODE
 70
     0
  9
$REGENMODE
 70
     1
  9
$FILLMODE
 70
     1
  9
$QTEXTMODE
 70
     0
  9
$MIRRTEXT
 70
     1
  9
$DRAGMODE
 70
     2
  9
$LTSCALE
 40
10.0
  9
$OSMODE
 70
     0
  9
$ATTMODE
 70
     1
  9
$TEXTSIZE
 40
0.2
  9
$TRACEWID
 40
0.05
  9
$TEXTSTYLE
  7
STANDARD
  9
$CLAYER
  8
0
  9
$CELTYPE
  6
CONTINUOUS
  9
$CECOLOR
 62
   256
  9
$DIMSCALE
 40
1.0
  9
$DIMASZ
 40
0.18
  9
$DIMEXO
 40
0.0625
  9
$DIMDLI
 40
0.38
  9
$DIMRND
 40
0.0
  9
$DIMDLE
 40
0.0
  9
$DIMEXE
 40
0.18
  9
$DIMTP
 40
0.0
  9
$DIMTM
 40
0.0
  9
$DIMTXT
 40
0.18
  9
$DIMCEN
 40
0.09
  9
$DIMTSZ
 40
0.0
  9
$DIMTOL
 70
     0
  9
$DIMLIM
 70
     0
  9
$DIMTIH
 70
     1
  9
$DIMTOH
 70
     1
  9
$DIMSE1
 70
     0
  9
$DIMSE2
 70
     0
  9
$DIMTAD
 70
     0
  9
$DIMZIN
 70
     0
  9
$DIMBLK
  1

  9
$DIMASO
 70
     1
  9
$DIMSHO
 70
     1
  9
$DIMPOST
  1

  9
$DIMAPOST
  1

  9
$DIMALT
 70
     0
  9
$DIMALTD
 70
     2
  9
$DIMALTF
 40
25.4
  9
$DIMLFAC
 40
1.0
  9
$DIMTOFL
 70
     0
  9
$DIMTVP
 40
0.0
  9
$DIMTIX
 70
     0
  9
$DIMSOXD
 70
     0
  9
$DIMSAH
 70
     0
  9
$DIMBLK1
  1

  9
$DIMBLK2
  1

  9
$DIMSTYLE
  2
STANDARD
  9
$DIMCLRD
 70
     0
  9
$DIMCLRE
 70
     0
  9
$DIMCLRT
 70
     0
  9
$DIMTFAC
 40
1.0
  9
$DIMGAP
 40
0.09
  9
$LUNITS
 70
     2
  9
$LUPREC
 70
     4
  9
$SKETCHINC
 40
0.1
  9
$FILLETRAD
 40
0.0
  9
$AUNITS
 70
     0
  9
$AUPREC
 70
     0
  9
$MENU
  1
acad
  9
$ELEVATION
 40
0.0
  9
$PELEVATION
 40
0.0
  9
$THICKNESS
 40
0.0
  9
$LIMCHECK
 70
     0
  9
$BLIPMODE
 70
     0
  9
$CHAMFERA
 40
0.0
  9
$CHAMFERB
 40
0.0
  9
$SKPOLY
 70
     0
  9
$TDCREATE
 40
2451533.646712
  9
$TDUPDATE
 40
2451533.646712
  9
$TDINDWG
 40
0.000413
  9
$TDUSRTIMER
 40
0.000413
  9
$USRTIMER
 70
     1
  9
$ANGBASE
 50
0.0
  9
$ANGDIR
 70
     0
  9
$PDMODE
 70
     0
  9
$PDSIZE
 40
0.0
  9
$PLINEWID
 40
0.0
  9
$COORDS
 70
     1
  9
$SPLFRAME
 70
     0
  9
$SPLINETYPE
 70
     6
  9
$SPLINESEGS
 70
     8
  9
$ATTDIA
 70
     0
  9
$ATTREQ
 70
     1
  9
$HANDLING
 70
     1
  9
$HANDSEED
  5
185D
  9
$SURFTAB1
 70
     6
  9
$SURFTAB2
 70
     6
  9
$SURFTYPE
 70
     6
  9
$SURFU
 70
     6
  9
$SURFV
 70
     6
  9
$UCSNAME
  2

  9
$UCSORG
 10
0.0
 20
0.0
 30
0.0
  9
$UCSXDIR
 10
1.0
 20
0.0
 30
0.0
  9
$UCSYDIR
 10
0.0
 20
1.0
 30
0.0
  9
$PUCSNAME
  2

  9
$PUCSORG
 10
0.0
 20
0.0
 30
0.0
  9
$PUCSXDIR
 10
1.0
 20
0.0
 30
0.0
  9
$PUCSYDIR
 10
0.0
 20
1.0
 30
0.0
  9
$USERI1
 70
     0
  9
$USERI2
 70
     0
  9
$USERI3
 70
     0
  9
$USERI4
 70
     0
  9
$USERI5
 70
     0
  9
$USERR1
 40
0.0
  9
$USERR2
 40
0.0
  9
$USERR3
 40
0.0
  9
$USERR4
 40
0.0
  9
$USERR5
 40
0.0
  9
$WORLDVIEW
 70
     1
  9
$SHADEDGE
 70
     3
  9
$SHADEDIF
 70
    70
  9
$TILEMODE
 70
     1
  9
$MAXACTVP
 70
    48
  9
$PLIMCHECK
 70
     0
  9
$PEXTMIN
 10
1.000000E+020
 20
1.000000E+020
 30
1.000000E+020
  9
$PEXTMAX
 10
-1.000000E+020
 20
-1.000000E+020
 30
-1.000000E+020
  9
$PLIMMIN
 10
0.0
 20
0.0
  9
$PLIMMAX
 10
12.0
 20
9.0
  9
$UNITMODE
 70
     0
  9
$VISRETAIN
 70
     1
  9
$PLINEGEN
 70
     0
  9
$PSLTSCALE
 70
     1
  0
ENDSEC
  0
SECTION
  2
TABLES
  0
TABLE
  2
VPORT
 70
     2
  0
VPORT
  2
*ACTIVE
 70
     0
 10
0.0
 20
0.0
 11
1.0
 21
1.0
 12
-0.512
 22
-0.16965
 13
0.0
 23
0.0
 14
1.0
 24
1.0
 15
0.0
 25
0.0
 16
0.0
 26
0.0
 36
1.0
 17
0.0
 27
0.0
 37
0.0
 40
2764.45291
 41
1.899729
 42
50.0
 43
0.0
 44
0.0
 50
0.0
 51
0.0
 71
     0
 72
   100
 73
     1
 74
     1
 75
     0
 76
     0
 77
     0
 78
     0
  0
ENDTAB
  0
TABLE
  2
LTYPE
 70
    10
  0
LTYPE
  2
CONTINUOUS
 70
     0
  3
Solid Line
 72
    65
 73
     0
 40
0.0
  0
LTYPE
  2
MCDASH1
 70
     0
  3
MiniCad+ Generated
 72
    65
 73
     2
 40
2.116537
 49
1.058075
 49
-1.058463
  0
LTYPE
  2
MCDASH2
 70
     0
  3
MiniCad+ Generated
 72
    65
 73
     2
 40
3.527692
 49
2.469229
 49
-1.058463
  0
LTYPE
  2
MCDASH3
 70
     0
  3
MiniCad+ Generated
 72
    65
 73
     2
 40
6.35
 49
5.291537
 49
-1.058463
  0
LTYPE
  2
MCDASH4
 70
     0
  3
MiniCad+ Generated
 72
    65
 73
     4
 40
33.513846
 49
20.108463
 49
-4.938846
 49
3.175
 49
-5.291537
  0
LTYPE
  2
MCDASH5
 70
     0
  3
MiniCad+ Generated
 72
    65
 73
     2
 40
1.058075
 49
0.352692
 49
-0.705383
  0
LTYPE
  2
MCDASH6
 70
     0
  3
MiniCad+ Generated
 72
    65
 73
     4
 40
32.102692
 49
21.519617
 49
-4.233075
 49
2.469617
 49
-3.880383
  0
LTYPE
  2
MCDASH7
 70
     0
  3
MiniCad+ Generated
 72
    65
 73
     6
 40
9.525
 49
3.175
 49
-1.058075
 49
3.175
 49
-1.058463
 49
0.352692
 49
-0.705771
  0
LTYPE
  2
MCDASH8
 70
     0
  3
MiniCad+ Generated
 72
    65
 73
     6
 40
6.35
 49
3.175
 49
-1.058075
 49
0.352692
 49
-0.705771
 49
0.352692
 49
-0.705771
  0
LTYPE
  2
MCDASH9
 70
     0
  3
MiniCad+ Generated
 72
    65
 73
     4
 40
28.222308
 49
20.108463
 49
-2.116537
 49
3.175
 49
-2.822308
  0
ENDTAB
  0
TABLE
  2
LAYER
 70
     3
  0
LAYER
  2
0
 70
     0
 62
     7
  6
CONTINUOUS
  0
LAYER
  2
SEET
 70
     0
 62
     7
  6
CONTINUOUS
  0
LAYER
  2
S
 70
     0
 62
     7
  6
CONTINUOUS
  0
ENDTAB
  0
TABLE
  2
STYLE
 70
     1
  0
STYLE
  2
STANDARD
 70
     0
 40
0.0
 41
1.0
 50
0.0
 71
     0
 42
0.2
  3
txt.shx
  4
bigfont.shx
  0
ENDTAB
  0
TABLE
  2
VIEW
 70
     0
  0
ENDTAB
  0
TABLE
  2
UCS
 70
     0
  0
ENDTAB
  0
TABLE
  2
APPID
 70
     1
  0
APPID
  2
ACAD
 70
     0
  0
ENDTAB
  0
TABLE
  2
DIMSTYLE
 70
     1
  0
DIMSTYLE
  2
STANDARD
 70
     0
  3

  4

  5

  6

  7

 40
1.0
 41
0.18
 42
0.0625
 43
0.38
 44
0.18
 45
0.0
 46
0.0
 47
0.0
 48
0.0
140
0.18
141
0.09
142
0.0
143
25.4
144
1.0
145
0.0
146
1.0
147
0.09
 71
     0
 72
     0
 73
     1
 74
     1
 75
     0
 76
     0
 77
     0
 78
     0
170
     0
171
     2
172
     0
173
     0
174
     0
175
     0
176
     0
177
     0
178
     0
  0
ENDTAB
  0
ENDSEC
  0
SECTION
  2
BLOCKS
  0
BLOCK
  8
0
  2
$MODEL_SPACE
 70
     0
 10
0.0
 20
0.0
 30
0.0
  3
$MODEL_SPACE
  1

  0
ENDBLK
  5
995
  8
0
  0
BLOCK
 67
     1
  8
0
  2
$PAPER_SPACE
 70
     0
 10
0.0
 20
0.0
 30
0.0
  3
$PAPER_SPACE
  1

  0
ENDBLK
  5
993
 67
     1
  8
0
  0
ENDSEC
  0
SECTION
  2
ENTITIES
  0
POLYLINE
  5
2A
  8
SEET
 66
     1
 10
0.0
 20
0.0
 30
0.0
 70
     1
  0
VERTEX
  5
10FC
  8
SEET
 10
-1955.392
 20
1360.0
 30
0.0
  0
VERTEX
  5
10FD
  8
SEET
 10
1954.608
 20
1360.0
 30
0.0
  0
VERTEX
  5
10FE
  8
SEET
 10
1954.608
 20
-1360.0
 30
0.0
  0
VERTEX
  5
10FF
  8
SEET
 10
-1955.392
 20
-1360.0
 30
0.0
  0
SEQEND
  5
1100
  8
SEET
  0
POLYLINE
  5
30
  8
SEET
 66
     1
 10
0.0
 20
0.0
 30
0.0
 70
     1
  0
VERTEX
  5
1101
  8
SEET
 10
-1955.632
 20
-1220.0
 30
0.0
  0
VERTEX
  5
1102
  8
SEET
 10
1954.368
 20
-1220.0
 30
0.0
  0
VERTEX
  5
1103
  8
SEET
 10
1954.368
 20
-1360.0
 30
0.0
  0
VERTEX
  5
1104
  8
SEET
 10
-1955.632
 20
-1360.0
 30
0.0
  0
SEQEND
  5
1105
  8
SEET
  0
LINE
  5
36
  8
SEET
 10
624.368
 20
-1360.0
 30
0.0
 11
1954.368
 21
-1360.0
 31
0.0
  0
LINE
  5
37
  8
SEET
 10
1154.368
 20
-1360.0
 30
0.0
 11
1154.368
 21
-1220.0
 31
0.0
  0
LINE
  5
38
  8
SEET
 10
954.368
 20
-1360.0
 30
0.0
 11
954.368
 21
-1220.0
 31
0.0
  0
LINE
  5
39
  8
SEET
 10
504.368
 20
-1360.0
 30
0.0
 11
504.368
 21
-1220.0
 31
0.0
  0
LINE
  5
3A
  8
SEET
 10
-545.632
 20
-1360.0
 30
0.0
 11
-545.632
 21
-1220.0
 31
0.0
  0
LINE
  5
3B
  8
SEET
 10
-945.632
 20
-1268.94
 30
0.0
 11
-545.632
 21
-1268.94
 31
0.0
  0
LINE
  5
3C
  8
SEET
 10
-945.632
 20
-1313.33
 30
0.0
 11
-545.632
 21
-1313.33
 31
0.0
  0
TEXT
  5
3D
  8
SEET
 10
-540.632
 20
-1267.4633
 30
0.0
 40
28.22224
  1
òiü@û╝
 41
0.645833
  0
TEXT
  5
3E
  8
SEET
 10
514.368
 20
-1272.4633
 30
0.0
 40
28.22224
  1
î`ü@Ä«
 41
0.645833
  0
TEXT
  5
3F
  8
SEET
 10
959.368
 20
-1272.4633
 30
0.0
 40
28.22224
  1
Ä┌ü@ôx
 41
0.645833
  0
TEXT
  5
40
  8
SEET
 10
1169.368
 20
-1272.4633
 30
0.0
 40
28.22224
  1
É}ü@öÈ
 41
0.645833
  0
LINE
  5
41
  8
SEET
 10
-945.632
 20
-1360.0
 30
0.0
 11
-945.632
 21
-1220.0
 31
0.0
  0
TEXT
  5
42
  8
SEET
 10
-935.632
 20
-1272.4633
 30
0.0
 40
28.22224
  1
îƒ  É}
 41
0.541666
  0
TEXT
  5
43
  8
SEET
 10
-935.632
 20
-1314.0233
 30
0.0
 40
28.22224
  1
ÆS  ôû
 41
0.541666
  0
TEXT
  5
44
  8
SEET
 10
-935.632
 20
-1359.8933
 30
0.0
 40
28.22224
  1
öNîÄô·
 41
0.645833
  0
TEXT
  5
45
  8
SEET
 10
-758.332
 20
-1360.3393
 30
0.0
 40
25.4
  1
97.2.27
 41
0.621667
  0
TEXT
  5
46
  8
SEET
 10
987.08
 20
-1352.2923
 30
0.0
 40
50.8
  1
1/10
 41
0.694444
  0
TEXT
  5
47
  8
SEET
 10
1343.275
 20
-1345.8573
 30
0.0
 40
73.37776
  1
A320-086
 41
0.689648
  0
TEXT
  5
48
  8
SEET
 10
-295.9345
 20
-1346.9763
 30
0.0
 40
50.8
  1
æùéÞÅoéÁâeü[âuâï
 41
0.605154
  0
TEXT
  5
49
  8
SEET
 10
613.3912
 20
-1354.2438
 30
0.0
 40
50.8
  1
CT 90 L
 41
0.721564
  0
POLYLINE
  5
4A
  8
SEET
 66
     1
 10
0.0
 20
0.0
 30
0.0
 70
     1
  0
VERTEX
  5
1106
  8
SEET
 10
1501.6668
 20
1190.0
 30
0.0
  0
VERTEX
  5
1107
  8
SEET
 10
401.6668
 20
1190.0
 30
0.0
  0
VERTEX
  5
1108
  8
SEET
 10
401.6668
 20
1090.0
 30
0.0
  0
VERTEX
  5
1109
  8
SEET
 10
1501.6668
 20
1090.0
 30
0.0
  0
SEQEND
  5
110A
  8
SEET
  0
POLYLINE
  5
50
  8
SEET
 66
     1
 10
0.0
 20
0.0
 30
0.0
 70
     1
  0
VERTEX
  5
110B
  8
SEET
 10
1501.6668
 20
1090.0
 30
0.0
  0
VERTEX
  5
110C
  8
SEET
 10
1401.6668
 20
1090.0
 30
0.0
  0
VERTEX
  5
110D
  8
SEET
 10
1401.6668
 20
90.0
 30
0.0
  0
VERTEX
  5
110E
  8
SEET
 10
1501.6668
 20
90.0
 30
0.0
  0
SEQEND
  5
110F
  8
SEET
  0
POLYLINE
  5
56
  8
SEET
 66
     1
 10
0.0
 20
0.0
 30
0.0
 70
     1
  0
VERTEX
  5
1110
  8
SEET
 10
1401.6668
 20
1090.0
 30
0.0
  0
VERTEX
  5
1111
  8
SEET
 10
401.6668
 20
1090.0
 30
0.0
  0
VERTEX
  5
1112
  8
SEET
 10
401.6668
 20
390.0
 30
0.0
  0
VERTEX
  5
1113
  8
SEET
 10
701.6668
 20
90.0
 30
0.0
  0
VERTEX
  5
1114
  8
SEET
 10
1401.6668
 20
90.0
 30
0.0
  0
SEQEND
  5
1115
  8
SEET
  0
LINE
  5
5D
  8
SEET
 10
806.6668
 20
87.0
 30
0.0
 11
1356.6668
 21
87.0
 31
0.0
  0
LINE
  5
5E
  8
SEET
 10
398.6668
 20
1045.0
 30
0.0
 11
398.6668
 21
495.0
 31
0.0
  0
LINE
  5
5F
  8
SEET
 10
1336.6668
 20
1045.0
 30
0.0
 11
398.6668
 21
1045.0
 31
0.0
  0
LINE
  5
60
  8
SEET
 10
1340.5692
 20
1044.6156
 30
0.0
 11
1336.6668
 21
1045.0
 31
0.0
  0
LINE
  5
61
  8
SEET
 10
1344.3216
 20
1043.4771
 30
0.0
 11
1340.5692
 21
1044.6156
 31
0.0
  0
LINE
  5
62
  8
SEET
 10
1347.7798
 20
1041.6284
 30
0.0
 11
1344.3216
 21
1043.4771
 31
0.0
  0
LINE
  5
63
  8
SEET
 10
1350.8106
 20
1039.1405
 30
0.0
 11
1347.7798
 21
1041.6284
 31
0.0
  0
LINE
  5
64
  8
SEET
 10
1353.2979
 20
1036.1089
 30
0.0
 11
1350.8106
 21
1039.1405
 31
0.0
  0
LINE
  5
65
  8
SEET
 10
1355.1458
 20
1032.6503
 30
0.0
 11
1353.2979
 21
1036.1089
 31
0.0
  0
LINE
  5
66
  8
SEET
 10
1356.2834
 20
1028.8973
 30
0.0
 11
1355.1458
 21
1032.6503
 31
0.0
  0
LINE
  5
67
  8
SEET
 10
1356.6668
 20
1025.0
 30
0.0
 11
1356.2834
 21
1028.8973
 31
0.0
  0
LINE
  5
68
  8
SEET
 10
1356.6668
 20
87.0
 30
0.0
 11
1356.6668
 21
1025.0
 31
0.0
  0
POLYLINE
  5
69
  8
SEET
 66
     1
 10
0.0
 20
0.0
 30
0.0
 70
     1
  0
VERTEX
  5
1116
  8
SEET
 10
1356.6668
 20
655.0
 30
0.0
  0
VERTEX
  5
1117
  8
SEET
 10
1356.6668
 20
1025.0
 30
0.0
  0
VERTEX
  5
1118
  8
SEET
 10
1356.2833
 20
1028.8976
 30
0.0
  0
VERTEX
  5
1119
  8
SEET
 10
1355.1458
 20
1032.6503
 30
0.0
  0
VERTEX
  5
111A
  8
SEET
 10
1353.2979
 20
1036.1089
 30
0.0
  0
VERTEX
  5
111B
  8
SEET
 10
1350.8106
 20
1039.1405
 30
0.0
  0
VERTEX
  5
111C
  8
SEET
 10
1347.7798
 20
1041.6284
 30
0.0
  0
VERTEX
  5
111D
  8
SEET
 10
1344.3216
 20
1043.4771
 30
0.0
  0
VERTEX
  5
111E
  8
SEET
 10
1340.5692
 20
1044.6156
 30
0.0
  0
VERTEX
  5
111F
  8
SEET
 10
1336.6668
 20
1045.0
 30
0.0
  0
VERTEX
  5
1120
  8
SEET
 10
966.6668
 20
1045.0
 30
0.0
  0
VERTEX
  5
1121
  8
SEET
 10
596.6668
 20
1045.0
 30
0.0
  0
VERTEX
  5
1122
  8
SEET
 10
592.7644
 20
1044.6156
 30
0.0
  0
VERTEX
  5
1123
  8
SEET
 10
589.012
 20
1043.4771
 30
0.0
  0
VERTEX
  5
1124
  8
SEET
 10
585.5538
 20
1041.6284
 30
0.0
  0
VERTEX
  5
1125
  8
SEET
 10
582.523
 20
1039.1405
 30
0.0
  0
VERTEX
  5
1126
  8
SEET
 10
580.0357
 20
1036.1089
 30
0.0
  0
VERTEX
  5
1127
  8
SEET
 10
578.1878
 20
1032.6503
 30
0.0
  0
VERTEX
  5
1128
  8
SEET
 10
577.0502
 20
1028.8973
 30
0.0
  0
VERTEX
  5
1129
  8
SEET
 10
576.6668
 20
1025.0
 30
0.0
  0
VERTEX
  5
112A
  8
SEET
 10
576.6668
 20
655.0
 30
0.0
  0
VERTEX
  5
112B
  8
SEET
 10
576.6668
 20
285.0
 30
0.0
  0
VERTEX
  5
112C
  8
SEET
 10
577.0503
 20
281.1021
 30
0.0
  0
VERTEX
  5
112D
  8
SEET
 10
578.1878
 20
277.3497
 30
0.0
  0
VERTEX
  5
112E
  8
SEET
 10
580.0357
 20
273.8911
 30
0.0
  0
VERTEX
  5
112F
  8
SEET
 10
582.523
 20
270.8595
 30
0.0
  0
VERTEX
  5
1130
  8
SEET
 10
585.5538
 20
268.3716
 30
0.0
  0
VERTEX
  5
1131
  8
SEET
 10
589.012
 20
266.5229
 30
0.0
  0
VERTEX
  5
1132
  8
SEET
 10
592.7644
 20
265.3844
 30
0.0
  0
VERTEX
  5
1133
  8
SEET
 10
596.6668
 20
265.0
 30
0.0
  0
VERTEX
  5
1134
  8
SEET
 10
966.6668
 20
265.0
 30
0.0
  0
VERTEX
  5
1135
  8
SEET
 10
1336.6668
 20
265.0
 30
0.0
  0
VERTEX
  5
1136
  8
SEET
 10
1340.5692
 20
265.3844
 30
0.0
  0
VERTEX
  5
1137
  8
SEET
 10
1344.3216
 20
266.5229
 30
0.0
  0
VERTEX
  5
1138
  8
SEET
 10
1347.7798
 20
268.3716
 30
0.0
  0
VERTEX
  5
1139
  8
SEET
 10
1350.8106
 20
270.8595
 30
0.0
  0
VERTEX
  5
113A
  8
SEET
 10
1353.2979
 20
273.8911
 30
0.0
  0
VERTEX
  5
113B
  8
SEET
 10
1355.1458
 20
277.3497
 30
0.0
  0
VERTEX
  5
113C
  8
SEET
 10
1356.2833
 20
281.1024
 30
0.0
  0
VERTEX
  5
113D
  8
SEET
 10
1356.6668
 20
285.0
 30
0.0
  0
VERTEX
  5
113E
  8
SEET
 10
1356.6668
 20
655.0
 30
0.0
  0
SEQEND
  5
113F
  8
SEET
  0
POLYLINE
  5
94
  8
SEET
 66
     1
 10
0.0
 20
0.0
 30
0.0
 70
     1
  0
VERTEX
  5
1140
  8
SEET
 10
657.9416
 20
574.8968
 30
0.0
  0
VERTEX
  5
1141
  8
SEET
 10
657.9416
 20
574.8968
 30
0.0
  0
VERTEX
  5
1142
  8
SEET
 10
663.5805
 20
574.8968
 30
0.0
  0
VERTEX
  5
1143
  8
SEET
 10
664.1611
 20
575.9024
 30
0.0
  0
VERTEX
  5
1144
  8
SEET
 10
664.1611
 20
588.9024
 30
0.0
  0
VERTEX
  5
1145
  8
SEET
 10
663.5805
 20
589.908
 30
0.0
  0
VERTEX
  5
1146
  8
SEET
 10
657.9416
 20
589.908
 30
0.0
  0
VERTEX
  5
1147
  8
SEET
 10
657.361
 20
588.9024
 30
0.0
  0
VERTEX
  5
1148
  8
SEET
 10
657.361
 20
575.9024
 30
0.0
  0
SEQEND
  5
1149
  8
SEET
  0
POLYLINE
  5
9F
  8
SEET
 66
     1
 10
0.0
 20
0.0
 30
0.0
  0
VERTEX
  5
114A
  8
SEET
 10
657.9416
 20
589.908
 30
0.0
  0
VERTEX
  5
114B
  8
SEET
 10
657.688
 20
589.4388
 30
0.0
  0
VERTEX
  5
114C
  8
SEET
 10
657.507
 20
588.9698
 30
0.0
  0
VERTEX
  5
114D
  8
SEET
 10
657.3984
 20
588.5006
 30
0.0
  0
VERTEX
  5
114E
  8
SEET
 10
657.3622
 20
588.0316
 30
0.0
  0
VERTEX
  5
114F
  8
SEET
 10
657.3984
 20
587.5624
 30
0.0
  0
VERTEX
  5
1150
  8
SEET
 10
657.507
 20
587.0934
 30
0.0
  0
VERTEX
  5
1151
  8
SEET
 10
657.688
 20
586.6242
 30
0.0
  0
VERTEX
  5
1152
  8
SEET
 10
657.9416
 20
586.1552
 30
0.0
  0
SEQEND
  5
1153
  8
SEET
  0
POLYLINE
  5
AA
  8
SEET
 66
     1
 10
0.0
 20
0.0
 30
0.0
  0
VERTEX
  5
1154
  8
SEET
 10
657.9416
 20
586.1552
 30
0.0
  0
VERTEX
  5
1155
  8
SEET
 10
657.688
 20
585.217
 30
0.0
  0
VERTEX
  5
1156
  8
SEET
 10
657.507
 20
584.2788
 30
0.0
  0
VERTEX
  5
1157
  8
SEET
 10
657.3984
 20
583.3406
 30
0.0
  0
VERTEX
  5
1158
  8
SEET
 10
657.3622
 20
582.4024
 30
0.0
  0
VERTEX
  5
1159
  8
SEET
 10
657.3984
 20
581.4642
 30
0.0
  0
VERTEX
  5
115A
  8
SEET
 10
657.507
 20
580.526
 30
0.0
  0
VERTEX
  5
115B
  8
SEET
 10
657.688
 20
579.5878
 30
0.0
  0
VERTEX
  5
115C
  8
SEET
 10
657.9416
 20
578.6496
 30
0.0
  0
SEQEND
  5
115D
  8
SEET
  0
POLYLINE
  5
B5
  8
SEET
 66
     1
 10
0.0
 20
0.0
 30
0.0
  0
VERTEX
  5
115E
  8
SEET
 10
657.9416
 20
578.6496
 30
0.0
  0
VERTEX
  5
115F
  8
SEET
 10
657.688
 20
578.1804
 30
0.0
  0
VERTEX
  5
1160
  8
SEET
 10
657.507
 20
577.7114
 30
0.0
  0
VERTEX
  5
1161
  8
SEET
 10
657.3984
 20
577.2422
 30
0.0
  0
VERTEX
  5
1162
  8
SEET
 10
657.3622
 20
576.7732
 30
0.0
  0
VERTEX
  5
1163
  8
SEET
 10
657.3984
 20
576.304
 30
0.0
  0
VERTEX
  5
1164
  8
SEET
 10
657.507
 20
575.835
 30
0.0
  0
VERTEX
  5
1165
  8
SEET
 10
657.688
 20
575.3658
 30
0.0
  0
VERTEX
  5
1166
  8
SEET
 10
657.9416
 20
574.8968
 30
0.0
  0
SEQEND
  5
1167
  8
SEET
  0
POLYLINE
  5
C0
  8
SEET
 66
     1
 10
0.0
 20
0.0
 30
0.0
  0
VERTEX
  5
1168
  8
SEET
 10
663.5805
 20
574.8968
 30
0.0
  0
VERTEX
  5
1169
  8
SEET
 10
663.8339
 20
575.3658
 30
0.0
  0
VERTEX
  5
116A
  8
SEET
 10
664.015
 20
575.835
 30
0.0
  0
VERTEX
  5
116B
  8
SEET
 10
664.1236
 20
576.304
 30
0.0
  0
VERTEX
  5
116C
  8
SEET
 10
664.1599
 20
576.7732
 30
0.0
  0
VERTEX
  5
116D
  8
SEET
 10
664.1236
 20
577.2422
 30
0.0
  0
VERTEX
  5
116E
  8
SEET
 10
664.015
 20
577.7114
 30
0.0
  0
VERTEX
  5
116F
  8
SEET
 10
663.8339
 20
578.1804
 30
0.0
  0
VERTEX
  5
1170
  8
SEET
 10
663.5805
 20
578.6496
 30
0.0
  0
SEQEND
  5
1171
  8
SEET
  0
POLYLINE
  5
CB
  8
SEET
 66
     1
 10
0.0
 20
0.0
 30
0.0
  0
VERTEX
  5
1172
  8
SEET
 10
663.5805
 20
578.6496
 30
0.0
  0
VERTEX
  5
1173
  8
SEET
 10
663.8339
 20
579.5878
 30
0.0
  0
VERTEX
  5
1174
  8
SEET
 10
664.015
 20
580.526
 30
0.0
  0
VERTEX
  5
1175
  8
SEET
 10
664.1236
 20
581.4642
 30
0.0
  0
VERTEX
  5
1176
  8
SEET
 10
664.1599
 20
582.4024
 30
0.0
  0
VERTEX
  5
1177
  8
SEET
 10
664.1236
 20
583.3406
 30
0.0
  0
VERTEX
  5
1178
  8
SEET
 10
664.015
 20
584.2788
 30
0.0
  0
VERTEX
  5
1179
  8
SEET
 10
663.8339
 20
585.217
 30
0.0
  0
VERTEX
  5
117A
  8
SEET
 10
663.5805
 20
586.1552
 30
0.0
  0
SEQEND
  5
117B
  8
SEET
  0
POLYLINE
  5
D6
  8
SEET
 66
     1
 10
0.0
 20
0.0
 30
0.0
  0
VERTEX
  5
117C
  8
SEET
 10
663.5805
 20
586.1552
 30
0.0
  0
VERTEX
  5
117D
  8
SEET
 10
663.8339
 20
586.6242
 30
0.0
  0
VERTEX
  5
117E
  8
SEET
 10
664.015
 20
587.0934
 30
0.0
  0
VERTEX
  5
117F
  8
SEET
 10
664.1236
 20
587.5624
 30
0.0
  0
VERTEX
  5
1180
  8
SEET
 10
664.1599
 20
588.0316
 30
0.0
  0
VERTEX
  5
1181
  8
SEET
 10
664.1236
 20
588.5006
 30
0.0
  0
VERTEX
  5
1182
  8
SEET
 10
664.015
 20
588.9698
 30
0.0
  0
VERTEX
  5
1183
  8
SEET
 10
663.8339
 20
589.4388
 30
0.0
  0
VERTEX
  5
1184
  8
SEET
 10
663.5805
 20
589.908
 30
0.0
  0
SEQEND
  5
1185
  8
SEET
  0
LINE
  5
E1
  8
SEET
 10
663.5805
 20
586.1552
 30
0.0
 11
657.9416
 21
586.1552
 31
0.0
  0
LINE
  5
E2
  8
SEET
 10
663.5805
 20
578.6496
 30
0.0
 11
657.9416
 21
578.6496
 31
0.0
  0
POLYLINE
  5
E3
  8
SEET
 66
     1
 10
0.0
 20
0.0
 30
0.0
 70
     1
  0
VERTEX
  5
1186
  8
SEET
 10
671.1653
 20
728.8809
 30
0.0
  0
VERTEX
  5
1187
  8
SEET
 10
834.1667
 20
685.3813
 30
0.0
  0
VERTEX
  5
1188
  8
SEET
 10
997.0481
 20
522.4999
 30
0.0
  0
VERTEX
  5
1189
  8
SEET
 10
1029.1587
 20
401.9989
 30
0.0
  0
VERTEX
  5
118A
  8
SEET
 10
1033.9883
 20
403.293
 30
0.0
  0
VERTEX
  5
118B
  8
SEET
 10
1001.378
 20
524.9998
 30
0.0
  0
VERTEX
  5
118C
  8
SEET
 10
836.6667
 20
689.7113
 30
0.0
  0
VERTEX
  5
118D
  8
SEET
 10
672.4593
 20
733.7105
 30
0.0
  0
SEQEND
  5
118E
  8
SEET
  0
LINE
  5
ED
  8
SEET
 10
724.6193
 20
719.7342
 30
0.0
 11
836.6667
 21
689.7113
 31
0.0
  0
LINE
  5
EE
  8
SEET
 10
1029.1587
 20
401.9989
 30
0.0
 11
1033.9883
 21
403.293
 31
0.0
  0
LINE
  5
EF
  8
SEET
 10
1025.7793
 20
414.6173
 30
0.0
 11
1027.8497
 21
406.8899
 31
0.0
  0
LINE
  5
F0
  8
SEET
 10
919.3541
 20
607.0249
 30
0.0
 11
1001.378
 21
524.9998
 31
0.0
  0
LINE
  5
F1
  8
SEET
 10
919.3541
 20
607.0249
 30
0.0
 11
915.8186
 21
603.4894
 31
0.0
  0
LINE
  5
F2
  8
SEET
 10
724.6193
 20
719.7342
 30
0.0
 11
723.3253
 21
714.9046
 31
0.0
  0
CIRCLE
  5
F3
  8
SEET
 10
689.1611
 20
587.4024
 30
0.0
 40
5.0
  0
POLYLINE
  5
F4
  8
SEET
 66
     1
 10
0.0
 20
0.0
 30
0.0
 70
     1
  0
VERTEX
  5
118F
  8
SEET
 10
1038.7373
 20
405.6661
 30
0.0
  0
VERTEX
  5
1190
  8
SEET
 10
1038.306
 20
405.5507
 30
0.0
  0
VERTEX
  5
1191
  8
SEET
 10
1033.7146
 20
404.3203
 30
0.0
  0
VERTEX
  5
1192
  8
SEET
 10
1029.5735
 20
419.7752
 30
0.0
  0
VERTEX
  5
1193
  8
SEET
 10
1034.5963
 20
421.121
 30
0.0
  0
SEQEND
  5
1194
  8
SEET
  0
LINE
  5
FB
  8
SEET
 10
1030.6089
 20
415.9113
 30
0.0
 11
1035.6315
 21
417.2571
 31
0.0
  0
LINE
  5
FC
  8
SEET
 10
1032.6794
 20
408.184
 30
0.0
 11
1037.7022
 21
409.5297
 31
0.0
  0
POLYLINE
  5
FD
  8
SEET
 66
     1
 10
0.0
 20
0.0
 30
0.0
 70
     1
  0
VERTEX
  5
1195
  8
SEET
 10
928.3562
 20
605.3755
 30
0.0
  0
VERTEX
  5
1196
  8
SEET
 10
928.0404
 20
605.0599
 30
0.0
  0
VERTEX
  5
1197
  8
SEET
 10
924.6793
 20
601.6986
 30
0.0
  0
VERTEX
  5
1198
  8
SEET
 10
913.3655
 20
613.0125
 30
0.0
  0
VERTEX
  5
1199
  8
SEET
 10
917.0425
 20
616.6894
 30
0.0
  0
SEQEND
  5
119A
  8
SEET
  0
LINE
  5
104
  8
SEET
 10
916.1942
 20
610.1839
 30
0.0
 11
919.871
 21
613.8607
 31
0.0
  0
LINE
  5
105
  8
SEET
 10
921.8509
 20
604.5271
 30
0.0
 11
925.528
 21
608.2039
 31
0.0
  0
POLYLINE
  5
106
  8
SEET
 66
     1
 10
0.0
 20
0.0
 30
0.0
 70
     1
  0
VERTEX
  5
119B
  8
SEET
 10
733.6925
 20
722.6862
 30
0.0
  0
VERTEX
  5
119C
  8
SEET
 10
733.5767
 20
722.2551
 30
0.0
  0
VERTEX
  5
119D
  8
SEET
 10
732.3467
 20
717.6636
 30
0.0
  0
VERTEX
  5
119E
  8
SEET
 10
716.8918
 20
721.8048
 30
0.0
  0
VERTEX
  5
119F
  8
SEET
 10
718.2377
 20
726.8274
 30
0.0
  0
SEQEND
  5
11A0
  8
SEET
  0
LINE
  5
10D
  8
SEET
 10
720.7557
 20
720.7694
 30
0.0
 11
722.1015
 21
725.792
 31
0.0
  0
LINE
  5
10E
  8
SEET
 10
728.4828
 20
718.6989
 30
0.0
 11
729.8289
 21
723.7217
 31
0.0
  0
POLYLINE
  5
10F
  8
SEET
 66
     1
 10
0.0
 20
0.0
 30
0.0
 70
     1
  0
VERTEX
  5
11A1
  8
SEET
 10
726.6609
 20
738.0289
 30
0.0
  0
VERTEX
  5
11A2
  8
SEET
 10
666.4791
 20
754.1545
 30
0.0
  0
VERTEX
  5
11A3
  8
SEET
 10
663.8909
 20
744.4952
 30
0.0
  0
VERTEX
  5
11A4
  8
SEET
 10
724.0727
 20
728.3696
 30
0.0
  0
SEQEND
  5
11A5
  8
SEET
  0
POLYLINE
  5
115
  8
SEET
 66
     1
 10
0.0
 20
0.0
 30
0.0
 70
     1
  0
VERTEX
  5
11A6
  8
SEET
 10
710.3209
 20
732.0544
 30
0.0
  0
VERTEX
  5
11A7
  8
SEET
 10
694.8661
 20
736.1955
 30
0.0
  0
VERTEX
  5
11A8
  8
SEET
 10
694.3485
 20
734.2637
 30
0.0
  0
VERTEX
  5
11A9
  8
SEET
 10
709.8033
 20
730.1226
 30
0.0
  0
SEQEND
  5
11AA
  8
SEET
  0
POLYLINE
  5
11B
  8
SEET
 66
     1
 10
0.0
 20
0.0
 30
0.0
 70
     1
  0
VERTEX
  5
11AB
  8
SEET
 10
713.4267
 20
743.6455
 30
0.0
  0
VERTEX
  5
11AC
  8
SEET
 10
697.9719
 20
747.7866
 30
0.0
  0
VERTEX
  5
11AD
  8
SEET
 10
697.4543
 20
745.8548
 30
0.0
  0
VERTEX
  5
11AE
  8
SEET
 10
712.9091
 20
741.7137
 30
0.0
  0
SEQEND
  5
11AF
  8
SEET
  0
LINE
  5
121
  8
SEET
 10
723.7569
 20
738.807
 30
0.0
 11
721.1687
 21
729.1477
 31
0.0
  0
POLYLINE
  5
122
  8
SEET
 66
     1
 10
0.0
 20
0.0
 30
0.0
 70
     1
  0
VERTEX
  5
11B0
  8
SEET
 10
709.5445
 20
729.1566
 30
0.0
  0
VERTEX
  5
11B1
  8
SEET
 10
709.4287
 20
728.7254
 30
0.0
  0
VERTEX
  5
11B2
  8
SEET
 10
708.1986
 20
724.134
 30
0.0
  0
VERTEX
  5
11B3
  8
SEET
 10
692.7438
 20
728.2752
 30
0.0
  0
VERTEX
  5
11B4
  8
SEET
 10
694.0897
 20
733.2978
 30
0.0
  0
SEQEND
  5
11B5
  8
SEET
  0
LINE
  5
129
  8
SEET
 10
696.6076
 20
727.2398
 30
0.0
 11
697.9535
 21
732.2622
 31
0.0
  0
LINE
  5
12A
  8
SEET
 10
704.3347
 20
725.1692
 30
0.0
 11
705.6809
 21
730.192
 31
0.0
  0
POLYLINE
  5
12B
  8
SEET
 66
     1
 10
0.0
 20
0.0
 30
0.0
 70
     1
  0
VERTEX
  5
11B6
  8
SEET
 10
700.318
 20
754.6321
 30
0.0
  0
VERTEX
  5
11B7
  8
SEET
 10
700.318
 20
754.6321
 30
0.0
  0
VERTEX
  5
11B8
  8
SEET
 10
698.7083
 20
748.6245
 30
0.0
  0
VERTEX
  5
11B9
  8
SEET
 10
713.208
 20
744.7393
 30
0.0
  0
VERTEX
  5
11BA
  8
SEET
 10
714.8177
 20
750.7469
 30
0.0
  0
VERTEX
  5
11BB
  8
SEET
 10
713.9967
 20
751.568
 30
0.0
  0
VERTEX
  5
11BC
  8
SEET
 10
701.4397
 20
754.9326
 30
0.0
  0
SEQEND
  5
11BD
  8
SEET
  0
POLYLINE
  5
134
  8
SEET
 66
     1
 10
0.0
 20
0.0
 30
0.0
  0
VERTEX
  5
11BE
  8
SEET
 10
714.8177
 20
750.7469
 30
0.0
  0
VERTEX
  5
11BF
  8
SEET
 10
714.4301
 20
751.1131
 30
0.0
  0
VERTEX
  5
11C0
  8
SEET
 10
714.0239
 20
751.4094
 30
0.0
  0
VERTEX
  5
11C1
  8
SEET
 10
713.5989
 20
751.6358
 30
0.0
  0
VERTEX
  5
11C2
  8
SEET
 10
713.1552
 20
751.7922
 30
0.0
  0
VERTEX
  5
11C3
  8
SEET
 10
712.6927
 20
751.8786
 30
0.0
  0
VERTEX
  5
11C4
  8
SEET
 10
712.2115
 20
751.8951
 30
0.0
  0
VERTEX
  5
11C5
  8
SEET
 10
711.7115
 20
751.8416
 30
0.0
  0
VERTEX
  5
11C6
  8
SEET
 10
711.1928
 20
751.7182
 30
0.0
  0
SEQEND
  5
11C7
  8
SEET
  0
POLYLINE
  5
13F
  8
SEET
 66
     1
 10
0.0
 20
0.0
 30
0.0
  0
VERTEX
  5
11C8
  8
SEET
 10
711.1928
 20
751.7182
 30
0.0
  0
VERTEX
  5
11C9
  8
SEET
 10
710.3521
 20
752.2058
 30
0.0
  0
VERTEX
  5
11CA
  8
SEET
 10
709.4927
 20
752.6235
 30
0.0
  0
VERTEX
  5
11CB
  8
SEET
 10
708.6146
 20
752.9713
 30
0.0
  0
VERTEX
  5
11CC
  8
SEET
 10
707.7178
 20
753.2491
 30
0.0
  0
VERTEX
  5
11CD
  8
SEET
 10
706.8022
 20
753.4569
 30
0.0
  0
VERTEX
  5
11CE
  8
SEET
 10
705.8678
 20
753.5948
 30
0.0
  0
VERTEX
  5
11CF
  8
SEET
 10
704.9147
 20
753.6628
 30
0.0
  0
VERTEX
  5
11D0
  8
SEET
 10
703.9429
 20
753.6608
 30
0.0
  0
SEQEND
  5
11D1
  8
SEET
  0
POLYLINE
  5
14A
  8
SEET
 66
     1
 10
0.0
 20
0.0
 30
0.0
  0
VERTEX
  5
11D2
  8
SEET
 10
703.9429
 20
753.6608
 30
0.0
  0
VERTEX
  5
11D3
  8
SEET
 10
703.5553
 20
754.027
 30
0.0
  0
VERTEX
  5
11D4
  8
SEET
 10
703.1491
 20
754.3233
 30
0.0
  0
VERTEX
  5
11D5
  8
SEET
 10
702.7241
 20
754.5497
 30
0.0
  0
VERTEX
  5
11D6
  8
SEET
 10
702.2804
 20
754.7061
 30
0.0
  0
VERTEX
  5
11D7
  8
SEET
 10
701.8179
 20
754.7925
 30
0.0
  0
VERTEX
  5
11D8
  8
SEET
 10
701.3367
 20
754.809
 30
0.0
  0
VERTEX
  5
11D9
  8
SEET
 10
700.8367
 20
754.7555
 30
0.0
  0
VERTEX
  5
11DA
  8
SEET
 10
700.318
 20
754.6321
 30
0.0
  0
SEQEND
  5
11DB
  8
SEET
  0
LINE
  5
155
  8
SEET
 10
709.6039
 20
745.7885
 30
0.0
 11
711.1928
 21
751.7182
 31
0.0
  0
LINE
  5
156
  8
SEET
 10
702.354
 20
747.7311
 30
0.0
 11
703.9429
 21
753.6608
 31
0.0
  0
POLYLINE
  5
157
  8
SEET
 66
     1
 10
0.0
 20
0.0
 30
0.0
 70
     1
  0
VERTEX
  5
11DC
  8
SEET
 10
930.2695
 20
621.8479
 30
0.0
  0
VERTEX
  5
11DD
  8
SEET
 10
886.2133
 20
665.904
 30
0.0
  0
VERTEX
  5
11DE
  8
SEET
 10
879.1423
 20
658.8329
 30
0.0
  0
VERTEX
  5
11DF
  8
SEET
 10
923.1984
 20
614.7768
 30
0.0
  0
SEQEND
  5
11E0
  8
SEET
  0
POLYLINE
  5
15D
  8
SEET
 66
     1
 10
0.0
 20
0.0
 30
0.0
 70
     1
  0
VERTEX
  5
11E1
  8
SEET
 10
913.1314
 20
624.8438
 30
0.0
  0
VERTEX
  5
11E2
  8
SEET
 10
901.8177
 20
636.1575
 30
0.0
  0
VERTEX
  5
11E3
  8
SEET
 10
900.4035
 20
634.7433
 30
0.0
  0
VERTEX
  5
11E4
  8
SEET
 10
911.7173
 20
623.4296
 30
0.0
  0
SEQEND
  5
11E5
  8
SEET
  0
LINE
  5
163
  8
SEET
 10
928.1437
 20
623.9737
 30
0.0
 11
921.0725
 21
616.9026
 31
0.0
  0
POLYLINE
  5
164
  8
SEET
 66
     1
 10
0.0
 20
0.0
 30
0.0
 70
     1
  0
VERTEX
  5
11E6
  8
SEET
 10
911.0102
 20
622.7225
 30
0.0
  0
VERTEX
  5
11E7
  8
SEET
 10
910.6943
 20
622.4069
 30
0.0
  0
VERTEX
  5
11E8
  8
SEET
 10
907.3333
 20
619.0458
 30
0.0
  0
VERTEX
  5
11E9
  8
SEET
 10
896.0196
 20
630.3595
 30
0.0
  0
VERTEX
  5
11EA
  8
SEET
 10
899.6965
 20
634.0362
 30
0.0
  0
SEQEND
  5
11EB
  8
SEET
  0
LINE
  5
16B
  8
SEET
 10
898.8481
 20
627.531
 30
0.0
 11
902.5249
 21
631.2075
 31
0.0
  0
LINE
  5
16C
  8
SEET
 10
904.5046
 20
621.8742
 30
0.0
 11
908.1819
 21
625.5509
 31
0.0
  0
POLYLINE
  5
16D
  8
SEET
 66
     1
 10
0.0
 20
0.0
 30
0.0
 70
     1
  0
VERTEX
  5
11EC
  8
SEET
 10
915.7575
 20
649.3982
 30
0.0
  0
VERTEX
  5
11ED
  8
SEET
 10
915.7575
 20
649.3982
 30
0.0
  0
VERTEX
  5
11EE
  8
SEET
 10
911.3596
 20
645.0003
 30
0.0
  0
VERTEX
  5
11EF
  8
SEET
 10
921.9741
 20
634.3858
 30
0.0
  0
VERTEX
  5
11F0
  8
SEET
 10
926.372
 20
638.7836
 30
0.0
  0
VERTEX
  5
11F1
  8
SEET
 10
926.0716
 20
639.9052
 30
0.0
  0
VERTEX
  5
11F2
  8
SEET
 10
916.8792
 20
649.0975
 30
0.0
  0
SEQEND
  5
11F3
  8
SEET
  0
POLYLINE
  5
176
  8
SEET
 66
     1
 10
0.0
 20
0.0
 30
0.0
  0
VERTEX
  5
11F4
  8
SEET
 10
926.372
 20
638.7836
 30
0.0
  0
VERTEX
  5
11F5
  8
SEET
 10
926.2195
 20
639.2944
 30
0.0
  0
VERTEX
  5
11F6
  8
SEET
 10
926.0159
 20
639.7542
 30
0.0
  0
VERTEX
  5
11F7
  8
SEET
 10
925.761
 20
640.1627
 30
0.0
  0
VERTEX
  5
11F8
  8
SEET
 10
925.455
 20
640.5201
 30
0.0
  0
VERTEX
  5
11F9
  8
SEET
 10
925.0976
 20
640.8261
 30
0.0
  0
VERTEX
  5
11FA
  8
SEET
 10
924.6891
 20
641.0811
 30
0.0
  0
VERTEX
  5
11FB
  8
SEET
 10
924.2293
 20
641.2847
 30
0.0
  0
VERTEX
  5
11FC
  8
SEET
 10
923.7184
 20
641.4373
 30
0.0
  0
SEQEND
  5
11FD
  8
SEET
  0
POLYLINE
  5
181
  8
SEET
 66
     1
 10
0.0
 20
0.0
 30
0.0
  0
VERTEX
  5
11FE
  8
SEET
 10
923.7184
 20
641.4373
 30
0.0
  0
VERTEX
  5
11FF
  8
SEET
 10
923.2342
 20
642.2799
 30
0.0
  0
VERTEX
  5
1200
  8
SEET
 10
922.6988
 20
643.0713
 30
0.0
  0
VERTEX
  5
1201
  8
SEET
 10
922.1122
 20
643.8115
 30
0.0
  0
VERTEX
  5
1202
  8
SEET
 10
921.4744
 20
644.5005
 30
0.0
  0
VERTEX
  5
1203
  8
SEET
 10
920.7853
 20
645.1383
 30
0.0
  0
VERTEX
  5
1204
  8
SEET
 10
920.0451
 20
645.7249
 30
0.0
  0
VERTEX
  5
1205
  8
SEET
 10
919.2537
 20
646.2603
 30
0.0
  0
VERTEX
  5
1206
  8
SEET
 10
918.4111
 20
646.7445
 30
0.0
  0
SEQEND
  5
1207
  8
SEET
  0
POLYLINE
  5
18C
  8
SEET
 66
     1
 10
0.0
 20
0.0
 30
0.0
  0
VERTEX
  5
1208
  8
SEET
 10
918.4111
 20
646.7445
 30
0.0
  0
VERTEX
  5
1209
  8
SEET
 10
918.2585
 20
647.2553
 30
0.0
  0
VERTEX
  5
120A
  8
SEET
 10
918.0549
 20
647.7151
 30
0.0
  0
VERTEX
  5
120B
  8
SEET
 10
917.8
 20
648.1236
 30
0.0
  0
VERTEX
  5
120C
  8
SEET
 10
917.494
 20
648.481
 30
0.0
  0
VERTEX
  5
120D
  8
SEET
 10
917.1366
 20
648.787
 30
0.0
  0
VERTEX
  5
120E
  8
SEET
 10
916.7281
 20
649.042
 30
0.0
  0
VERTEX
  5
120F
  8
SEET
 10
916.2683
 20
649.2456
 30
0.0
  0
VERTEX
  5
1210
  8
SEET
 10
915.7575
 20
649.3982
 30
0.0
  0
SEQEND
  5
1211
  8
SEET
  0
LINE
  5
197
  8
SEET
 10
919.3775
 20
637.0964
 30
0.0
 11
923.7184
 21
641.4373
 31
0.0
  0
LINE
  5
198
  8
SEET
 10
914.0702
 20
642.4037
 30
0.0
 11
918.4111
 21
646.7445
 31
0.0
  0
POLYLINE
  5
199
  8
SEET
 66
     1
 10
0.0
 20
0.0
 30
0.0
 70
     1
  0
VERTEX
  5
1212
  8
SEET
 10
1048.5085
 20
419.4271
 30
0.0
  0
VERTEX
  5
1213
  8
SEET
 10
1032.3828
 20
479.6089
 30
0.0
  0
VERTEX
  5
1214
  8
SEET
 10
1022.7236
 20
477.0206
 30
0.0
  0
VERTEX
  5
1215
  8
SEET
 10
1038.8493
 20
416.8388
 30
0.0
  0
SEQEND
  5
1216
  8
SEET
  0
POLYLINE
  5
19F
  8
SEET
 66
     1
 10
0.0
 20
0.0
 30
0.0
 70
     1
  0
VERTEX
  5
1217
  8
SEET
 10
1035.1645
 20
430.5906
 30
0.0
  0
VERTEX
  5
1218
  8
SEET
 10
1031.0233
 20
446.0455
 30
0.0
  0
VERTEX
  5
1219
  8
SEET
 10
1029.0915
 20
445.5278
 30
0.0
  0
VERTEX
  5
121A
  8
SEET
 10
1033.2327
 20
430.073
 30
0.0
  0
SEQEND
  5
121B
  8
SEET
  0
POLYLINE
  5
1A5
  8
SEET
 66
     1
 10
0.0
 20
0.0
 30
0.0
 70
     1
  0
VERTEX
  5
121C
  8
SEET
 10
1046.7555
 20
433.6965
 30
0.0
  0
VERTEX
  5
121D
  8
SEET
 10
1042.6145
 20
449.1512
 30
0.0
  0
VERTEX
  5
121E
  8
SEET
 10
1040.6827
 20
448.6336
 30
0.0
  0
VERTEX
  5
121F
  8
SEET
 10
1044.8237
 20
433.1789
 30
0.0
  0
SEQEND
  5
1220
  8
SEET
  0
LINE
  5
1AB
  8
SEET
 10
1047.7304
 20
422.331
 30
0.0
 11
1038.0711
 21
419.7428
 31
0.0
  0
POLYLINE
  5
1AC
  8
SEET
 66
     1
 10
0.0
 20
0.0
 30
0.0
 70
     1
  0
VERTEX
  5
1221
  8
SEET
 10
1032.2668
 20
429.8141
 30
0.0
  0
VERTEX
  5
1222
  8
SEET
 10
1031.8354
 20
429.6988
 30
0.0
  0
VERTEX
  5
1223
  8
SEET
 10
1027.2442
 20
428.4685
 30
0.0
  0
VERTEX
  5
1224
  8
SEET
 10
1023.103
 20
443.9232
 30
0.0
  0
VERTEX
  5
1225
  8
SEET
 10
1028.1257
 20
445.269
 30
0.0
  0
SEQEND
  5
1226
  8
SEET
  0
LINE
  5
1B3
  8
SEET
 10
1024.1384
 20
440.0595
 30
0.0
 11
1029.1608
 21
441.405
 31
0.0
  0
LINE
  5
1B4
  8
SEET
 10
1026.2087
 20
432.3323
 30
0.0
 11
1031.2316
 21
433.6778
 31
0.0
  0
POLYLINE
  5
1B5
  8
SEET
 66
     1
 10
0.0
 20
0.0
 30
0.0
 70
     1
  0
VERTEX
  5
1227
  8
SEET
 10
1049.716
 20
450.5423
 30
0.0
  0
VERTEX
  5
1228
  8
SEET
 10
1049.716
 20
450.5423
 30
0.0
  0
VERTEX
  5
1229
  8
SEET
 10
1043.7083
 20
448.9326
 30
0.0
  0
VERTEX
  5
122A
  8
SEET
 10
1047.5935
 20
434.4329
 30
0.0
  0
VERTEX
  5
122B
  8
SEET
 10
1053.6011
 20
436.0425
 30
0.0
  0
VERTEX
  5
122C
  8
SEET
 10
1053.9017
 20
437.1641
 30
0.0
  0
VERTEX
  5
122D
  8
SEET
 10
1050.537
 20
449.721
 30
0.0
  0
SEQEND
  5
122E
  8
SEET
  0
POLYLINE
  5
1BE
  8
SEET
 66
     1
 10
0.0
 20
0.0
 30
0.0
  0
VERTEX
  5
122F
  8
SEET
 10
1053.6011
 20
436.0425
 30
0.0
  0
VERTEX
  5
1230
  8
SEET
 10
1053.7245
 20
436.5612
 30
0.0
  0
VERTEX
  5
1231
  8
SEET
 10
1053.778
 20
437.0612
 30
0.0
  0
VERTEX
  5
1232
  8
SEET
 10
1053.7616
 20
437.5424
 30
0.0
  0
VERTEX
  5
1233
  8
SEET
 10
1053.6752
 20
438.0049
 30
0.0
  0
VERTEX
  5
1234
  8
SEET
 10
1053.5188
 20
438.4486
 30
0.0
  0
VERTEX
  5
1235
  8
SEET
 10
1053.2924
 20
438.8736
 30
0.0
  0
VERTEX
  5
1236
  8
SEET
 10
1052.996
 20
439.2799
 30
0.0
  0
VERTEX
  5
1237
  8
SEET
 10
1052.6298
 20
439.6675
 30
0.0
  0
SEQEND
  5
1238
  8
SEET
  0
POLYLINE
  5
1C9
  8
SEET
 66
     1
 10
0.0
 20
0.0
 30
0.0
  0
VERTEX
  5
1239
  8
SEET
 10
1052.6298
 20
439.6675
 30
0.0
  0
VERTEX
  5
123A
  8
SEET
 10
1052.6318
 20
440.6393
 30
0.0
  0
VERTEX
  5
123B
  8
SEET
 10
1052.5638
 20
441.5924
 30
0.0
  0
VERTEX
  5
123C
  8
SEET
 10
1052.4259
 20
442.5267
 30
0.0
  0
VERTEX
  5
123D
  8
SEET
 10
1052.2181
 20
443.4423
 30
0.0
  0
VERTEX
  5
123E
  8
SEET
 10
1051.9402
 20
444.3391
 30
0.0
  0
VERTEX
  5
123F
  8
SEET
 10
1051.5924
 20
445.2173
 30
0.0
  0
VERTEX
  5
1240
  8
SEET
 10
1051.1747
 20
446.0767
 30
0.0
  0
VERTEX
  5
1241
  8
SEET
 10
1050.6871
 20
446.9174
 30
0.0
  0
SEQEND
  5
1242
  8
SEET
  0
POLYLINE
  5
1D4
  8
SEET
 66
     1
 10
0.0
 20
0.0
 30
0.0
  0
VERTEX
  5
1243
  8
SEET
 10
1050.6871
 20
446.9174
 30
0.0
  0
VERTEX
  5
1244
  8
SEET
 10
1050.8105
 20
447.436
 30
0.0
  0
VERTEX
  5
1245
  8
SEET
 10
1050.864
 20
447.936
 30
0.0
  0
VERTEX
  5
1246
  8
SEET
 10
1050.8476
 20
448.4172
 30
0.0
  0
VERTEX
  5
1247
  8
SEET
 10
1050.7612
 20
448.8797
 30
0.0
  0
VERTEX
  5
1248
  8
SEET
 10
1050.6048
 20
449.3234
 30
0.0
  0
VERTEX
  5
1249
  8
SEET
 10
1050.3785
 20
449.7484
 30
0.0
  0
VERTEX
  5
124A
  8
SEET
 10
1050.0822
 20
450.1547
 30
0.0
  0
VERTEX
  5
124B
  8
SEET
 10
1049.716
 20
450.5423
 30
0.0
  0
SEQEND
  5
124C
  8
SEET
  0
LINE
  5
1DF
  8
SEET
 10
1046.7001
 20
438.0787
 30
0.0
 11
1052.6298
 21
439.6675
 31
0.0
  0
LINE
  5
1E0
  8
SEET
 10
1044.7574
 20
445.3285
 30
0.0
 11
1050.6871
 21
446.9174
 31
0.0
  0
LINE
  5
1E1
  8
SEET
 10
1033.9883
 20
403.293
 30
0.0
 11
1001.378
 21
524.9998
 31
0.0
  0
CIRCLE
  5
1E2
  8
SEET
 10
766.6668
 20
855.0
 30
0.0
 40
32.5
  0
CIRCLE
  5
1E3
  8
SEET
 10
766.6668
 20
855.0
 30
0.0
 40
24.0
  0
LINE
  5
1E4
  8
SEET
 10
706.6668
 20
855.0
 30
0.0
 11
826.6668
 21
855.0
 31
0.0
  0
LINE
  5
1E5
  8
SEET
 10
766.6668
 20
915.0
 30
0.0
 11
766.6668
 21
795.0
 31
0.0
  0
POLYLINE
  5
1E6
  8
SEET
 66
     1
 10
0.0
 20
0.0
 30
0.0
 70
     1
  0
VERTEX
  5
124D
  8
SEET
 10
576.6668
 20
620.0
 30
0.0
  0
VERTEX
  5
124E
  8
SEET
 10
607.6668
 20
620.0
 30
0.0
  0
VERTEX
  5
124F
  8
SEET
 10
670.8858
 20
613.7725
 30
0.0
  0
VERTEX
  5
1250
  8
SEET
 10
731.6749
 20
595.3293
 30
0.0
  0
VERTEX
  5
1251
  8
SEET
 10
787.6967
 20
565.3794
 30
0.0
  0
VERTEX
  5
1252
  8
SEET
 10
836.7968
 20
525.0753
 30
0.0
  0
VERTEX
  5
1253
  8
SEET
 10
877.0901
 20
475.9642
 30
0.0
  0
VERTEX
  5
1254
  8
SEET
 10
907.0263
 20
419.935
 30
0.0
  0
VERTEX
  5
1255
  8
SEET
 10
925.4547
 20
359.1414
 30
0.0
  0
VERTEX
  5
1256
  8
SEET
 10
931.6668
 20
296.0
 30
0.0
  0
VERTEX
  5
1257
  8
SEET
 10
931.6668
 20
265.0
 30
0.0
  0
VERTEX
  5
1258
  8
SEET
 10
923.6668
 20
265.0
 30
0.0
  0
VERTEX
  5
1259
  8
SEET
 10
923.6668
 20
298.0
 30
0.0
  0
VERTEX
  5
125A
  8
SEET
 10
917.6464
 20
359.1926
 30
0.0
  0
VERTEX
  5
125B
  8
SEET
 10
899.7868
 20
418.1099
 30
0.0
  0
VERTEX
  5
125C
  8
SEET
 10
870.7746
 20
472.4097
 30
0.0
  0
VERTEX
  5
125D
  8
SEET
 10
831.7249
 20
520.0051
 30
0.0
  0
VERTEX
  5
125E
  8
SEET
 10
784.1403
 20
559.0652
 30
0.0
  0
VERTEX
  5
125F
  8
SEET
 10
729.8475
 20
588.0907
 30
0.0
  0
VERTEX
  5
1260
  8
SEET
 10
670.9346
 20
605.9647
 30
0.0
  0
VERTEX
  5
1261
  8
SEET
 10
609.6668
 20
612.0
 30
0.0
  0
VERTEX
  5
1262
  8
SEET
 10
576.6668
 20
612.0
 30
0.0
  0
VERTEX
  5
1263
  8
SEET
 10
576.6668
 20
620.0
 30
0.0
  0
SEQEND
  5
1264
  8
SEET
  0
POLYLINE
  5
1FF
  8
SEET
 66
     1
 10
0.0
 20
0.0
 30
0.0
 70
     1
  0
VERTEX
  5
1265
  8
SEET
 10
576.6668
 20
800.0
 30
0.0
  0
VERTEX
  5
1266
  8
SEET
 10
607.6668
 20
800.0
 30
0.0
  0
VERTEX
  5
1267
  8
SEET
 10
706.0074
 20
790.3127
 30
0.0
  0
VERTEX
  5
1268
  8
SEET
 10
800.5683
 20
761.6233
 30
0.0
  0
VERTEX
  5
1269
  8
SEET
 10
887.7134
 20
715.0346
 30
0.0
  0
VERTEX
  5
126A
  8
SEET
 10
964.0913
 20
652.3394
 30
0.0
  0
VERTEX
  5
126B
  8
SEET
 10
1026.7697
 20
575.9442
 30
0.0
  0
VERTEX
  5
126C
  8
SEET
 10
1073.3372
 20
488.7878
 30
0.0
  0
VERTEX
  5
126D
  8
SEET
 10
1102.0035
 20
394.2199
 30
0.0
  0
VERTEX
  5
126E
  8
SEET
 10
1111.6668
 20
296.0
 30
0.0
  0
VERTEX
  5
126F
  8
SEET
 10
1111.6668
 20
265.0
 30
0.0
  0
VERTEX
  5
1270
  8
SEET
 10
1103.6668
 20
265.0
 30
0.0
  0
VERTEX
  5
1271
  8
SEET
 10
1103.6668
 20
300.0
 30
0.0
  0
VERTEX
  5
1272
  8
SEET
 10
1094.2336
 20
395.8814
 30
0.0
  0
VERTEX
  5
1273
  8
SEET
 10
1066.2498
 20
488.1977
 30
0.0
  0
VERTEX
  5
1274
  8
SEET
 10
1020.7911
 20
573.2789
 30
0.0
  0
VERTEX
  5
1275
  8
SEET
 10
959.605
 20
647.8551
 30
0.0
  0
VERTEX
  5
1276
  8
SEET
 10
885.0456
 20
709.0576
 30
0.0
  0
VERTEX
  5
1277
  8
SEET
 10
799.9754
 20
754.537
 30
0.0
  0
VERTEX
  5
1278
  8
SEET
 10
707.666
 20
782.5434
 30
0.0
  0
VERTEX
  5
1279
  8
SEET
 10
611.6668
 20
792.0
 30
0.0
  0
VERTEX
  5
127A
  8
SEET
 10
576.6668
 20
792.0
 30
0.0
  0
VERTEX
  5
127B
  8
SEET
 10
576.6668
 20
800.0
 30
0.0
  0
SEQEND
  5
127C
  8
SEET
  0
POLYLINE
  5
218
  8
SEET
 66
     1
 10
0.0
 20
0.0
 30
0.0
 70
     1
  0
VERTEX
  5
127D
  8
SEET
 10
576.6668
 20
950.0
 30
0.0
  0
VERTEX
  5
127E
  8
SEET
 10
607.6668
 20
950.0
 30
0.0
  0
VERTEX
  5
127F
  8
SEET
 10
735.2754
 20
937.4296
 30
0.0
  0
VERTEX
  5
1280
  8
SEET
 10
857.9795
 20
900.2017
 30
0.0
  0
VERTEX
  5
1281
  8
SEET
 10
971.0605
 20
839.7472
 30
0.0
  0
VERTEX
  5
1282
  8
SEET
 10
1070.17
 20
758.3928
 30
0.0
  0
VERTEX
  5
1283
  8
SEET
 10
1151.5027
 20
659.261
 30
0.0
  0
VERTEX
  5
1284
  8
SEET
 10
1211.9296
 20
546.1652
 30
0.0
  0
VERTEX
  5
1285
  8
SEET
 10
1249.1276
 20
423.452
 30
0.0
  0
VERTEX
  5
1286
  8
SEET
 10
1261.6668
 20
296.0
 30
0.0
  0
VERTEX
  5
1287
  8
SEET
 10
1261.6668
 20
265.0
 30
0.0
  0
VERTEX
  5
1288
  8
SEET
 10
1253.6668
 20
265.0
 30
0.0
  0
VERTEX
  5
1289
  8
SEET
 10
1253.6668
 20
296.0
 30
0.0
  0
VERTEX
  5
128A
  8
SEET
 10
1241.2809
 20
421.893
 30
0.0
  0
VERTEX
  5
128B
  8
SEET
 10
1204.538
 20
543.1051
 30
0.0
  0
VERTEX
  5
128C
  8
SEET
 10
1144.8503
 20
654.8174
 30
0.0
  0
VERTEX
  5
128D
  8
SEET
 10
1064.5125
 20
752.7366
 30
0.0
  0
VERTEX
  5
128E
  8
SEET
 10
966.6154
 20
833.0959
 30
0.0
  0
VERTEX
  5
128F
  8
SEET
 10
854.9176
 20
892.8108
 30
0.0
  0
VERTEX
  5
1290
  8
SEET
 10
733.7145
 20
929.5834
 30
0.0
  0
VERTEX
  5
1291
  8
SEET
 10
607.6668
 20
942.0
 30
0.0
  0
VERTEX
  5
1292
  8
SEET
 10
576.6668
 20
942.0
 30
0.0
  0
VERTEX
  5
1293
  8
SEET
 10
576.6668
 20
950.0
 30
0.0
  0
SEQEND
  5
1294
  8
SEET
  0
POLYLINE
  5
231
  8
SEET
  6
MCDASH1
 66
     1
 10
0.0
 20
0.0
 30
0.0
 70
     1
  0
VERTEX
  5
1295
  8
SEET
  6
MCDASH1
 10
571.6668
 20
587.4024
 30
0.0
  0
VERTEX
  5
1296
  8
SEET
  6
MCDASH1
 10
526.1611
 20
587.4024
 30
0.0
  0
VERTEX
  5
1297
  8
SEET
  6
MCDASH1
 10
526.1611
 20
577.4024
 30
0.0
  0
VERTEX
  5
1298
  8
SEET
  6
MCDASH1
 10
571.6668
 20
577.4024
 30
0.0
  0
SEQEND
  5
1299
  8
SEET
  6
MCDASH1
  0
POLYLINE
  5
237
  8
SEET
  6
MCDASH1
 66
     1
 10
0.0
 20
0.0
 30
0.0
 70
     1
  0
VERTEX
  5
129A
  8
SEET
  6
MCDASH1
 10
526.1611
 20
586.4024
 30
0.0
  0
VERTEX
  5
129B
  8
SEET
  6
MCDASH1
 10
501.1611
 20
586.4024
 30
0.0
  0
VERTEX
  5
129C
  8
SEET
  6
MCDASH1
 10
501.1611
 20
578.4024
 30
0.0
  0
VERTEX
  5
129D
  8
SEET
  6
MCDASH1
 10
526.1611
 20
578.4024
 30
0.0
  0
SEQEND
  5
129E
  8
SEET
  6
MCDASH1
  0
POLYLINE
  5
23D
  8
SEET
 66
     1
 10
0.0
 20
0.0
 30
0.0
 70
     1
  0
VERTEX
  5
129F
  8
SEET
 10
646.1611
 20
587.4024
 30
0.0
  0
VERTEX
  5
12A0
  8
SEET
 10
571.6668
 20
587.4024
 30
0.0
  0
VERTEX
  5
12A1
  8
SEET
 10
571.6668
 20
577.4024
 30
0.0
  0
VERTEX
  5
12A2
  8
SEET
 10
646.1611
 20
577.4024
 30
0.0
  0
SEQEND
  5
12A3
  8
SEET
  0
POLYLINE
  5
243
  8
SEET
 66
     1
 10
0.0
 20
0.0
 30
0.0
 70
     1
  0
VERTEX
  5
12A4
  8
SEET
 10
576.6668
 20
1045.0
 30
0.0
  0
VERTEX
  5
12A5
  8
SEET
 10
611.6668
 20
1045.0
 30
0.0
  0
VERTEX
  5
12A6
  8
SEET
 10
757.0314
 20
1030.6805
 30
0.0
  0
VERTEX
  5
12A7
  8
SEET
 10
896.8089
 20
988.2725
 30
0.0
  0
VERTEX
  5
12A8
  8
SEET
 10
1025.6245
 20
919.4063
 30
0.0
  0
VERTEX
  5
12A9
  8
SEET
 10
1138.5245
 20
826.7318
 30
0.0
  0
VERTEX
  5
12AA
  8
SEET
 10
1231.1741
 20
713.8065
 30
0.0
  0
VERTEX
  5
12AB
  8
SEET
 10
1300.0089
 20
584.9741
 30
0.0
  0
VERTEX
  5
12AC
  8
SEET
 10
1342.3828
 20
445.1862
 30
0.0
  0
VERTEX
  5
12AD
  8
SEET
 10
1356.6668
 20
300.0
 30
0.0
  0
VERTEX
  5
12AE
  8
SEET
 10
1356.6668
 20
265.0
 30
0.0
  0
VERTEX
  5
12AF
  8
SEET
 10
1348.6668
 20
265.0
 30
0.0
  0
VERTEX
  5
12B0
  8
SEET
 10
1348.6668
 20
300.0
 30
0.0
  0
VERTEX
  5
12B1
  8
SEET
 10
1334.5362
 20
443.6271
 30
0.0
  0
VERTEX
  5
12B2
  8
SEET
 10
1292.6173
 20
581.914
 30
0.0
  0
VERTEX
  5
12B3
  8
SEET
 10
1224.5217
 20
709.3629
 30
0.0
  0
VERTEX
  5
12B4
  8
SEET
 10
1132.8669
 20
821.0756
 30
0.0
  0
VERTEX
  5
12B5
  8
SEET
 10
1021.1793
 20
912.7549
 30
0.0
  0
VERTEX
  5
12B6
  8
SEET
 10
893.747
 20
980.8817
 30
0.0
  0
VERTEX
  5
12B7
  8
SEET
 10
755.4704
 20
1022.8343
 30
0.0
  0
VERTEX
  5
12B8
  8
SEET
 10
611.6668
 20
1037.0
 30
0.0
  0
VERTEX
  5
12B9
  8
SEET
 10
576.6668
 20
1037.0
 30
0.0
  0
VERTEX
  5
12BA
  8
SEET
 10
576.6668
 20
1045.0
 30
0.0
  0
SEQEND
  5
12BB
  8
SEET
  0
POLYLINE
  5
25C
  8
SEET
  6
MCDASH6
 66
     1
 10
0.0
 20
0.0
 30
0.0
 70
     1
  0
VERTEX
  5
12BC
  8
SEET
  6
MCDASH6
 10
1100.437
 20
439.7296
 30
0.0
  0
VERTEX
  5
12BD
  8
SEET
  6
MCDASH6
 10
1241.8583
 20
581.151
 30
0.0
  0
VERTEX
  5
12BE
  8
SEET
  6
MCDASH6
 10
1248.0807
 20
588.7341
 30
0.0
  0
VERTEX
  5
12BF
  8
SEET
  6
MCDASH6
 10
1252.7005
 20
597.3805
 30
0.0
  0
VERTEX
  5
12C0
  8
SEET
  6
MCDASH6
 10
1255.5443
 20
606.7623
 30
0.0
  0
VERTEX
  5
12C1
  8
SEET
  6
MCDASH6
 10
1256.503
 20
616.5185
 30
0.0
  0
VERTEX
  5
12C2
  8
SEET
  6
MCDASH6
 10
1255.5443
 20
626.2503
 30
0.0
  0
VERTEX
  5
12C3
  8
SEET
  6
MCDASH6
 10
1252.7005
 20
635.6321
 30
0.0
  0
VERTEX
  5
12C4
  8
SEET
  6
MCDASH6
 10
1248.0807
 20
644.2785
 30
0.0
  0
VERTEX
  5
12C5
  8
SEET
  6
MCDASH6
 10
1241.8583
 20
651.8616
 30
0.0
  0
VERTEX
  5
12C6
  8
SEET
  6
MCDASH6
 10
1100.437
 20
793.283
 30
0.0
  0
VERTEX
  5
12C7
  8
SEET
  6
MCDASH6
 10
959.0156
 20
934.7043
 30
0.0
  0
VERTEX
  5
12C8
  8
SEET
  6
MCDASH6
 10
951.4427
 20
940.9199
 30
0.0
  0
VERTEX
  5
12C9
  8
SEET
  6
MCDASH6
 10
942.7974
 20
945.5418
 30
0.0
  0
VERTEX
  5
12CA
  8
SEET
  6
MCDASH6
 10
933.4163
 20
948.388
 30
0.0
  0
VERTEX
  5
12CB
  8
SEET
  6
MCDASH6
 10
923.6603
 20
949.349
 30
0.0
  0
VERTEX
  5
12CC
  8
SEET
  6
MCDASH6
 10
913.9043
 20
948.388
 30
0.0
  0
VERTEX
  5
12CD
  8
SEET
  6
MCDASH6
 10
904.5232
 20
945.5418
 30
0.0
  0
VERTEX
  5
12CE
  8
SEET
  6
MCDASH6
 10
895.8779
 20
940.9199
 30
0.0
  0
VERTEX
  5
12CF
  8
SEET
  6
MCDASH6
 10
888.305
 20
934.7043
 30
0.0
  0
VERTEX
  5
12D0
  8
SEET
  6
MCDASH6
 10
746.8836
 20
793.283
 30
0.0
  0
VERTEX
  5
12D1
  8
SEET
  6
MCDASH6
 10
605.4624
 20
651.8617
 30
0.0
  0
VERTEX
  5
12D2
  8
SEET
  6
MCDASH6
 10
599.24
 20
644.2786
 30
0.0
  0
VERTEX
  5
12D3
  8
SEET
  6
MCDASH6
 10
594.6202
 20
635.6322
 30
0.0
  0
VERTEX
  5
12D4
  8
SEET
  6
MCDASH6
 10
591.7764
 20
626.2504
 30
0.0
  0
VERTEX
  5
12D5
  8
SEET
  6
MCDASH6
 10
590.8177
 20
616.5186
 30
0.0
  0
VERTEX
  5
12D6
  8
SEET
  6
MCDASH6
 10
591.7764
 20
606.7624
 30
0.0
  0
VERTEX
  5
12D7
  8
SEET
  6
MCDASH6
 10
594.6202
 20
597.3806
 30
0.0
  0
VERTEX
  5
12D8
  8
SEET
  6
MCDASH6
 10
599.24
 20
588.7342
 30
0.0
  0
VERTEX
  5
12D9
  8
SEET
  6
MCDASH6
 10
605.4624
 20
581.1511
 30
0.0
  0
VERTEX
  5
12DA
  8
SEET
  6
MCDASH6
 10
746.8836
 20
439.7297
 30
0.0
  0
VERTEX
  5
12DB
  8
SEET
  6
MCDASH6
 10
888.305
 20
298.3084
 30
0.0
  0
VERTEX
  5
12DC
  8
SEET
  6
MCDASH6
 10
895.8779
 20
292.0928
 30
0.0
  0
VERTEX
  5
12DD
  8
SEET
  6
MCDASH6
 10
904.5232
 20
287.4709
 30
0.0
  0
VERTEX
  5
12DE
  8
SEET
  6
MCDASH6
 10
913.9043
 20
284.6247
 30
0.0
  0
VERTEX
  5
12DF
  8
SEET
  6
MCDASH6
 10
923.6603
 20
283.6637
 30
0.0
  0
VERTEX
  5
12E0
  8
SEET
  6
MCDASH6
 10
933.4163
 20
284.6247
 30
0.0
  0
VERTEX
  5
12E1
  8
SEET
  6
MCDASH6
 10
942.7974
 20
287.4709
 30
0.0
  0
VERTEX
  5
12E2
  8
SEET
  6
MCDASH6
 10
951.4427
 20
292.0928
 30
0.0
  0
VERTEX
  5
12E3
  8
SEET
  6
MCDASH6
 10
959.0156
 20
298.3084
 30
0.0
  0
VERTEX
  5
12E4
  8
SEET
  6
MCDASH6
 10
1100.437
 20
439.7296
 30
0.0
  0
SEQEND
  5
12E5
  8
SEET
  6
MCDASH6
  0
POLYLINE
  5
287
  8
SEET
 66
     1
 10
0.0
 20
0.0
 30
0.0
 70
     1
  0
VERTEX
  5
12E6
  8
SEET
 10
497.6668
 20
839.0
 30
0.0
  0
VERTEX
  5
12E7
  8
SEET
 10
538.6668
 20
814.0
 30
0.0
  0
VERTEX
  5
12E8
  8
SEET
 10
497.6668
 20
789.0
 30
0.0
  0
VERTEX
  5
12E9
  8
SEET
 10
497.6668
 20
804.0
 30
0.0
  0
VERTEX
  5
12EA
  8
SEET
 10
425.6668
 20
804.0
 30
0.0
  0
VERTEX
  5
12EB
  8
SEET
 10
425.6668
 20
824.0
 30
0.0
  0
VERTEX
  5
12EC
  8
SEET
 10
497.6668
 20
824.0
 30
0.0
  0
SEQEND
  5
12ED
  8
SEET
  0
POLYLINE
  5
290
  8
SEET
 66
     1
 10
0.0
 20
0.0
 30
0.0
 70
     1
  0
VERTEX
  5
12EE
  8
SEET
 10
1151.6668
 20
154.0
 30
0.0
  0
VERTEX
  5
12EF
  8
SEET
 10
1126.6668
 20
113.0
 30
0.0
  0
VERTEX
  5
12F0
  8
SEET
 10
1101.6668
 20
154.0
 30
0.0
  0
VERTEX
  5
12F1
  8
SEET
 10
1116.6668
 20
154.0
 30
0.0
  0
VERTEX
  5
12F2
  8
SEET
 10
1116.6668
 20
226.0
 30
0.0
  0
VERTEX
  5
12F3
  8
SEET
 10
1136.6668
 20
226.0
 30
0.0
  0
VERTEX
  5
12F4
  8
SEET
 10
1136.6668
 20
154.0
 30
0.0
  0
SEQEND
  5
12F5
  8
SEET
  0
LINE
  5
299
  8
SEET
 10
-1468.3332
 20
1220.0
 30
0.0
 11
-1468.3332
 21
-418.0
 31
0.0
  0
POLYLINE
  5
29A
  8
SEET
 66
     1
 10
0.0
 20
0.0
 30
0.0
 70
     1
  0
VERTEX
  5
12F6
  8
SEET
 10
1276.6668
 20
-357.0
 30
0.0
  0
VERTEX
  5
12F7
  8
SEET
 10
1276.6668
 20
-359.0
 30
0.0
  0
VERTEX
  5
12F8
  8
SEET
 10
1277.7519
 20
-359.0
 30
0.0
  0
VERTEX
  5
12F9
  8
SEET
 10
1278.5218
 20
-359.0748
 30
0.0
  0
VERTEX
  5
12FA
  8
SEET
 10
1279.263
 20
-359.2964
 30
0.0
  0
VERTEX
  5
12FB
  8
SEET
 10
1279.9476
 20
-359.6565
 30
0.0
  0
VERTEX
  5
12FC
  8
SEET
 10
1280.5501
 20
-360.1417
 30
0.0
  0
VERTEX
  5
12FD
  8
SEET
 10
1281.0479
 20
-360.7337
 30
0.0
  0
VERTEX
  5
12FE
  8
SEET
 10
1281.4225
 20
-361.4105
 30
0.0
  0
VERTEX
  5
12FF
  8
SEET
 10
1281.6598
 20
-362.1468
 30
0.0
  0
VERTEX
  5
1300
  8
SEET
 10
1281.751
 20
-362.914
 30
0.0
  0
VERTEX
  5
1301
  8
SEET
 10
1283.6668
 20
-452.0
 30
0.0
  0
VERTEX
  5
1302
  8
SEET
 10
1291.6668
 20
-462.0
 30
0.0
  0
VERTEX
  5
1303
  8
SEET
 10
1291.6668
 20
-467.0
 30
0.0
  0
VERTEX
  5
1304
  8
SEET
 10
1331.6668
 20
-467.0
 30
0.0
  0
VERTEX
  5
1305
  8
SEET
 10
1331.6668
 20
-462.0
 30
0.0
  0
VERTEX
  5
1306
  8
SEET
 10
1339.6668
 20
-451.5
 30
0.0
  0
VERTEX
  5
1307
  8
SEET
 10
1341.5821
 20
-362.9135
 30
0.0
  0
VERTEX
  5
1308
  8
SEET
 10
1341.6733
 20
-362.1464
 30
0.0
  0
VERTEX
  5
1309
  8
SEET
 10
1341.9107
 20
-361.4103
 30
0.0
  0
VERTEX
  5
130A
  8
SEET
 10
1342.2853
 20
-360.7335
 30
0.0
  0
VERTEX
  5
130B
  8
SEET
 10
1342.7831
 20
-360.1415
 30
0.0
  0
VERTEX
  5
130C
  8
SEET
 10
1343.3856
 20
-359.6564
 30
0.0
  0
VERTEX
  5
130D
  8
SEET
 10
1344.0702
 20
-359.2964
 30
0.0
  0
VERTEX
  5
130E
  8
SEET
 10
1344.8113
 20
-359.0748
 30
0.0
  0
VERTEX
  5
130F
  8
SEET
 10
1345.5812
 20
-359.0
 30
0.0
  0
VERTEX
  5
1310
  8
SEET
 10
1346.6668
 20
-359.0
 30
0.0
  0
VERTEX
  5
1311
  8
SEET
 10
1346.6668
 20
-357.0
 30
0.0
  0
VERTEX
  5
1312
  8
SEET
 10
1276.6668
 20
-357.0
 30
0.0
  0
SEQEND
  5
1313
  8
SEET
  0
POLYLINE
  5
2B9
  8
SEET
 66
     1
 10
0.0
 20
0.0
 30
0.0
 70
     1
  0
VERTEX
  5
1314
  8
SEET
 10
1346.6668
 20
-357.0
 30
0.0
  0
VERTEX
  5
1315
  8
SEET
 10
1276.6668
 20
-357.0
 30
0.0
  0
VERTEX
  5
1316
  8
SEET
 10
1276.6668
 20
-359.0
 30
0.0
  0
VERTEX
  5
1317
  8
SEET
 10
1346.6668
 20
-359.0
 30
0.0
  0
SEQEND
  5
1318
  8
SEET
  0
LINE
  5
2BF
  8
SEET
 10
1295.1668
 20
-462.0
 30
0.0
 11
1328.6668
 21
-462.0
 31
0.0
  0
POLYLINE
  5
2C0
  8
SEET
 66
     1
 10
0.0
 20
0.0
 30
0.0
 70
     1
  0
VERTEX
  5
1319
  8
SEET
 10
1298.1668
 20
-1113.0
 30
0.0
  0
VERTEX
  5
131A
  8
SEET
 10
1298.1668
 20
-1150.0
 30
0.0
  0
VERTEX
  5
131B
  8
SEET
 10
1298.2627
 20
-1150.9745
 30
0.0
  0
VERTEX
  5
131C
  8
SEET
 10
1298.5471
 20
-1151.9126
 30
0.0
  0
VERTEX
  5
131D
  8
SEET
 10
1299.009
 20
-1152.7772
 30
0.0
  0
VERTEX
  5
131E
  8
SEET
 10
1299.6308
 20
-1153.5351
 30
0.0
  0
VERTEX
  5
131F
  8
SEET
 10
1300.3886
 20
-1154.1571
 30
0.0
  0
VERTEX
  5
1320
  8
SEET
 10
1301.2531
 20
-1154.6193
 30
0.0
  0
VERTEX
  5
1321
  8
SEET
 10
1302.1912
 20
-1154.9039
 30
0.0
  0
VERTEX
  5
1322
  8
SEET
 10
1303.1668
 20
-1155.0
 30
0.0
  0
VERTEX
  5
1323
  8
SEET
 10
1311.6668
 20
-1155.0
 30
0.0
  0
VERTEX
  5
1324
  8
SEET
 10
1320.1668
 20
-1155.0
 30
0.0
  0
VERTEX
  5
1325
  8
SEET
 10
1321.1424
 20
-1154.9039
 30
0.0
  0
VERTEX
  5
1326
  8
SEET
 10
1322.0805
 20
-1154.6193
 30
0.0
  0
VERTEX
  5
1327
  8
SEET
 10
1322.945
 20
-1154.1571
 30
0.0
  0
VERTEX
  5
1328
  8
SEET
 10
1323.7028
 20
-1153.5351
 30
0.0
  0
VERTEX
  5
1329
  8
SEET
 10
1324.3246
 20
-1152.7772
 30
0.0
  0
VERTEX
  5
132A
  8
SEET
 10
1324.7865
 20
-1151.9126
 30
0.0
  0
VERTEX
  5
132B
  8
SEET
 10
1325.0709
 20
-1150.9744
 30
0.0
  0
VERTEX
  5
132C
  8
SEET
 10
1325.1668
 20
-1150.0
 30
0.0
  0
VERTEX
  5
132D
  8
SEET
 10
1325.1668
 20
-1113.0
 30
0.0
  0
VERTEX
  5
132E
  8
SEET
 10
1298.1668
 20
-1113.0
 30
0.0
  0
SEQEND
  5
132F
  8
SEET
  0
POLYLINE
  5
2D8
  8
SEET
 66
     1
 10
0.0
 20
0.0
 30
0.0
 70
     1
  0
VERTEX
  5
1330
  8
SEET
 10
1311.6668
 20
-1113.0
 30
0.0
  0
VERTEX
  5
1331
  8
SEET
 10
1293.6668
 20
-1113.0
 30
0.0
  0
VERTEX
  5
1332
  8
SEET
 10
1293.0814
 20
-1112.9423
 30
0.0
  0
VERTEX
  5
1333
  8
SEET
 10
1292.5186
 20
-1112.7716
 30
0.0
  0
VERTEX
  5
1334
  8
SEET
 10
1291.9999
 20
-1112.4943
 30
0.0
  0
VERTEX
  5
1335
  8
SEET
 10
1291.5452
 20
-1112.1211
 30
0.0
  0
VERTEX
  5
1336
  8
SEET
 10
1291.1721
 20
-1111.6663
 30
0.0
  0
VERTEX
  5
1337
  8
SEET
 10
1290.895
 20
-1111.1475
 30
0.0
  0
VERTEX
  5
1338
  8
SEET
 10
1290.7243
 20
-1110.5847
 30
0.0
  0
VERTEX
  5
1339
  8
SEET
 10
1290.6668
 20
-1110.0
 30
0.0
  0
VERTEX
  5
133A
  8
SEET
 10
1290.6668
 20
-1108.0
 30
0.0
  0
VERTEX
  5
133B
  8
SEET
 10
1290.6668
 20
-1106.0
 30
0.0
  0
VERTEX
  5
133C
  8
SEET
 10
1290.7243
 20
-1105.4154
 30
0.0
  0
VERTEX
  5
133D
  8
SEET
 10
1290.895
 20
-1104.8525
 30
0.0
  0
VERTEX
  5
133E
  8
SEET
 10
1291.1721
 20
-1104.3337
 30
0.0
  0
VERTEX
  5
133F
  8
SEET
 10
1291.5452
 20
-1103.8789
 30
0.0
  0
VERTEX
  5
1340
  8
SEET
 10
1291.9999
 20
-1103.5057
 30
0.0
  0
VERTEX
  5
1341
  8
SEET
 10
1292.5186
 20
-1103.2284
 30
0.0
  0
VERTEX
  5
1342
  8
SEET
 10
1293.0814
 20
-1103.0577
 30
0.0
  0
VERTEX
  5
1343
  8
SEET
 10
1293.6668
 20
-1103.0
 30
0.0
  0
VERTEX
  5
1344
  8
SEET
 10
1311.6668
 20
-1103.0
 30
0.0
  0
VERTEX
  5
1345
  8
SEET
 10
1329.6668
 20
-1103.0
 30
0.0
  0
VERTEX
  5
1346
  8
SEET
 10
1330.2522
 20
-1103.0577
 30
0.0
  0
VERTEX
  5
1347
  8
SEET
 10
1330.815
 20
-1103.2284
 30
0.0
  0
VERTEX
  5
1348
  8
SEET
 10
1331.3337
 20
-1103.5057
 30
0.0
  0
VERTEX
  5
1349
  8
SEET
 10
1331.7884
 20
-1103.8789
 30
0.0
  0
VERTEX
  5
134A
  8
SEET
 10
1332.1615
 20
-1104.3337
 30
0.0
  0
VERTEX
  5
134B
  8
SEET
 10
1332.4386
 20
-1104.8525
 30
0.0
  0
VERTEX
  5
134C
  8
SEET
 10
1332.6093
 20
-1105.4154
 30
0.0
  0
VERTEX
  5
134D
  8
SEET
 10
1332.6668
 20
-1106.0
 30
0.0
  0
VERTEX
  5
134E
  8
SEET
 10
1332.6668
 20
-1108.0
 30
0.0
  0
VERTEX
  5
134F
  8
SEET
 10
1332.6668
 20
-1110.0
 30
0.0
  0
VERTEX
  5
1350
  8
SEET
 10
1332.6093
 20
-1110.5846
 30
0.0
  0
VERTEX
  5
1351
  8
SEET
 10
1332.4386
 20
-1111.1475
 30
0.0
  0
VERTEX
  5
1352
  8
SEET
 10
1332.1615
 20
-1111.6663
 30
0.0
  0
VERTEX
  5
1353
  8
SEET
 10
1331.7884
 20
-1112.1211
 30
0.0
  0
VERTEX
  5
1354
  8
SEET
 10
1331.3337
 20
-1112.4943
 30
0.0
  0
VERTEX
  5
1355
  8
SEET
 10
1330.815
 20
-1112.7716
 30
0.0
  0
VERTEX
  5
1356
  8
SEET
 10
1330.2522
 20
-1112.9423
 30
0.0
  0
VERTEX
  5
1357
  8
SEET
 10
1329.6668
 20
-1113.0
 30
0.0
  0
VERTEX
  5
1358
  8
SEET
 10
1311.6668
 20
-1113.0
 30
0.0
  0
SEQEND
  5
1359
  8
SEET
  0
POLYLINE
  5
303
  8
SEET
 66
     1
 10
0.0
 20
0.0
 30
0.0
 70
     1
  0
VERTEX
  5
135A
  8
SEET
 10
1331.6668
 20
-980.0
 30
0.0
  0
VERTEX
  5
135B
  8
SEET
 10
1333.1954
 20
-983.2101
 30
0.0
  0
VERTEX
  5
135C
  8
SEET
 10
1333.4209
 20
-983.7198
 30
0.0
  0
VERTEX
  5
135D
  8
SEET
 10
1333.6171
 20
-984.2395
 30
0.0
  0
VERTEX
  5
135E
  8
SEET
 10
1333.7841
 20
-984.7693
 30
0.0
  0
VERTEX
  5
135F
  8
SEET
 10
1333.9214
 20
-985.3076
 30
0.0
  0
VERTEX
  5
1360
  8
SEET
 10
1334.0286
 20
-985.8527
 30
0.0
  0
VERTEX
  5
1361
  8
SEET
 10
1334.1054
 20
-986.403
 30
0.0
  0
VERTEX
  5
1362
  8
SEET
 10
1334.1515
 20
-986.9566
 30
0.0
  0
VERTEX
  5
1363
  8
SEET
 10
1334.1668
 20
-987.5094
 30
0.0
  0
VERTEX
  5
1364
  8
SEET
 10
1334.1668
 20
-1005.0
 30
0.0
  0
VERTEX
  5
1365
  8
SEET
 10
1334.1668
 20
-1022.4906
 30
0.0
  0
VERTEX
  5
1366
  8
SEET
 10
1334.1515
 20
-1023.0434
 30
0.0
  0
VERTEX
  5
1367
  8
SEET
 10
1334.1054
 20
-1023.597
 30
0.0
  0
VERTEX
  5
1368
  8
SEET
 10
1334.0286
 20
-1024.1473
 30
0.0
  0
VERTEX
  5
1369
  8
SEET
 10
1333.9214
 20
-1024.6924
 30
0.0
  0
VERTEX
  5
136A
  8
SEET
 10
1333.7841
 20
-1025.2307
 30
0.0
  0
VERTEX
  5
136B
  8
SEET
 10
1333.6171
 20
-1025.7605
 30
0.0
  0
VERTEX
  5
136C
  8
SEET
 10
1333.4209
 20
-1026.2802
 30
0.0
  0
VERTEX
  5
136D
  8
SEET
 10
1333.1954
 20
-1026.7899
 30
0.0
  0
VERTEX
  5
136E
  8
SEET
 10
1331.6668
 20
-1030.0
 30
0.0
  0
VERTEX
  5
136F
  8
SEET
 10
1291.6668
 20
-1030.0
 30
0.0
  0
VERTEX
  5
1370
  8
SEET
 10
1290.1382
 20
-1026.7899
 30
0.0
  0
VERTEX
  5
1371
  8
SEET
 10
1289.9127
 20
-1026.2802
 30
0.0
  0
VERTEX
  5
1372
  8
SEET
 10
1289.7165
 20
-1025.7605
 30
0.0
  0
VERTEX
  5
1373
  8
SEET
 10
1289.5495
 20
-1025.2307
 30
0.0
  0
VERTEX
  5
1374
  8
SEET
 10
1289.4122
 20
-1024.6924
 30
0.0
  0
VERTEX
  5
1375
  8
SEET
 10
1289.305
 20
-1024.1473
 30
0.0
  0
VERTEX
  5
1376
  8
SEET
 10
1289.2282
 20
-1023.5972
 30
0.0
  0
VERTEX
  5
1377
  8
SEET
 10
1289.1821
 20
-1023.0436
 30
0.0
  0
VERTEX
  5
1378
  8
SEET
 10
1289.1668
 20
-1022.4906
 30
0.0
  0
VERTEX
  5
1379
  8
SEET
 10
1289.1668
 20
-1019.5
 30
0.0
  0
VERTEX
  5
137A
  8
SEET
 10
1259.1668
 20
-1019.5
 30
0.0
  0
VERTEX
  5
137B
  8
SEET
 10
1259.1668
 20
-990.5
 30
0.0
  0
VERTEX
  5
137C
  8
SEET
 10
1289.1668
 20
-990.5
 30
0.0
  0
VERTEX
  5
137D
  8
SEET
 10
1289.1668
 20
-987.5094
 30
0.0
  0
VERTEX
  5
137E
  8
SEET
 10
1289.1821
 20
-986.9566
 30
0.0
  0
VERTEX
  5
137F
  8
SEET
 10
1289.2282
 20
-986.403
 30
0.0
  0
VERTEX
  5
1380
  8
SEET
 10
1289.305
 20
-985.8528
 30
0.0
  0
VERTEX
  5
1381
  8
SEET
 10
1289.4122
 20
-985.3077
 30
0.0
  0
VERTEX
  5
1382
  8
SEET
 10
1289.5495
 20
-984.7695
 30
0.0
  0
VERTEX
  5
1383
  8
SEET
 10
1289.7165
 20
-984.2395
 30
0.0
  0
VERTEX
  5
1384
  8
SEET
 10
1289.9127
 20
-983.7198
 30
0.0
  0
VERTEX
  5
1385
  8
SEET
 10
1290.1382
 20
-983.2101
 30
0.0
  0
VERTEX
  5
1386
  8
SEET
 10
1291.6668
 20
-980.0
 30
0.0
  0
VERTEX
  5
1387
  8
SEET
 10
1331.6668
 20
-980.0
 30
0.0
  0
SEQEND
  5
1388
  8
SEET
  0
ARC
  5
333
  8
SEET
 10
1257.1668
 20
-1005.5
 30
0.0
 40
35.0322
 50
344.580508
 51
16.974487
  0
POLYLINE
  5
334
  8
SEET
 66
     1
 10
0.0
 20
0.0
 30
0.0
 70
     1
  0
VERTEX
  5
1389
  8
SEET
 10
1356.6668
 20
-280.0
 30
0.0
  0
VERTEX
  5
138A
  8
SEET
 10
576.6668
 20
-280.0
 30
0.0
  0
VERTEX
  5
138B
  8
SEET
 10
576.6668
 20
-355.0
 30
0.0
  0
VERTEX
  5
138C
  8
SEET
 10
1356.6668
 20
-355.0
 30
0.0
  0
SEQEND
  5
138D
  8
SEET
  0
POLYLINE
  5
33A
  8
SEET
 66
     1
 10
0.0
 20
0.0
 30
0.0
 70
     1
  0
VERTEX
  5
138E
  8
SEET
 10
1401.6668
 20
-280.0
 30
0.0
  0
VERTEX
  5
138F
  8
SEET
 10
1356.6668
 20
-280.0
 30
0.0
  0
VERTEX
  5
1390
  8
SEET
 10
1356.6668
 20
-305.0
 30
0.0
  0
VERTEX
  5
1391
  8
SEET
 10
1401.6668
 20
-305.0
 30
0.0
  0
SEQEND
  5
1392
  8
SEET
  0
POLYLINE
  5
340
  8
SEET
 66
     1
 10
0.0
 20
0.0
 30
0.0
 70
     1
  0
VERTEX
  5
1393
  8
SEET
 10
1399.6668
 20
-305.0
 30
0.0
  0
VERTEX
  5
1394
  8
SEET
 10
1399.6668
 20
-328.0
 30
0.0
  0
VERTEX
  5
1395
  8
SEET
 10
1388.6668
 20
-328.0
 30
0.0
  0
VERTEX
  5
1396
  8
SEET
 10
1396.6668
 20
-328.0
 30
0.0
  0
VERTEX
  5
1397
  8
SEET
 10
1396.6668
 20
-326.0
 30
0.0
  0
VERTEX
  5
1398
  8
SEET
 10
1388.6668
 20
-326.0
 30
0.0
  0
VERTEX
  5
1399
  8
SEET
 10
1388.2766
 20
-326.0384
 30
0.0
  0
VERTEX
  5
139A
  8
SEET
 10
1387.9013
 20
-326.1523
 30
0.0
  0
VERTEX
  5
139B
  8
SEET
 10
1387.5555
 20
-326.3372
 30
0.0
  0
VERTEX
  5
139C
  8
SEET
 10
1387.2524
 20
-326.586
 30
0.0
  0
VERTEX
  5
139D
  8
SEET
 10
1387.0037
 20
-326.8891
 30
0.0
  0
VERTEX
  5
139E
  8
SEET
 10
1386.8189
 20
-327.235
 30
0.0
  0
VERTEX
  5
139F
  8
SEET
 10
1386.7051
 20
-327.6103
 30
0.0
  0
VERTEX
  5
13A0
  8
SEET
 10
1386.6668
 20
-328.0
 30
0.0
  0
VERTEX
  5
13A1
  8
SEET
 10
1386.7052
 20
-328.3898
 30
0.0
  0
VERTEX
  5
13A2
  8
SEET
 10
1386.8189
 20
-328.765
 30
0.0
  0
VERTEX
  5
13A3
  8
SEET
 10
1387.0037
 20
-329.1109
 30
0.0
  0
VERTEX
  5
13A4
  8
SEET
 10
1387.2524
 20
-329.414
 30
0.0
  0
VERTEX
  5
13A5
  8
SEET
 10
1387.5555
 20
-329.6628
 30
0.0
  0
VERTEX
  5
13A6
  8
SEET
 10
1387.9013
 20
-329.8477
 30
0.0
  0
VERTEX
  5
13A7
  8
SEET
 10
1388.2766
 20
-329.9616
 30
0.0
  0
VERTEX
  5
13A8
  8
SEET
 10
1388.6668
 20
-330.0
 30
0.0
  0
VERTEX
  5
13A9
  8
SEET
 10
1401.6668
 20
-330.0
 30
0.0
  0
VERTEX
  5
13AA
  8
SEET
 10
1401.6668
 20
-305.0
 30
0.0
  0
VERTEX
  5
13AB
  8
SEET
 10
1399.6668
 20
-305.0
 30
0.0
  0
SEQEND
  5
13AC
  8
SEET
  0
POLYLINE
  5
35B
  8
SEET
 66
     1
 10
0.0
 20
0.0
 30
0.0
 70
     1
  0
VERTEX
  5
13AD
  8
SEET
 10
1501.6668
 20
-130.0
 30
0.0
  0
VERTEX
  5
13AE
  8
SEET
 10
1401.6668
 20
-130.0
 30
0.0
  0
VERTEX
  5
13AF
  8
SEET
 10
1401.6668
 20
-305.0
 30
0.0
  0
VERTEX
  5
13B0
  8
SEET
 10
1501.6668
 20
-305.0
 30
0.0
  0
SEQEND
  5
13B1
  8
SEET
  0
POLYLINE
  5
361
  8
SEET
 66
     1
 10
0.0
 20
0.0
 30
0.0
 70
     1
  0
VERTEX
  5
13B2
  8
SEET
 10
806.6668
 20
-280.0
 30
0.0
  0
VERTEX
  5
13B3
  8
SEET
 10
401.6668
 20
-280.0
 30
0.0
  0
VERTEX
  5
13B4
  8
SEET
 10
401.6668
 20
-305.0
 30
0.0
  0
VERTEX
  5
13B5
  8
SEET
 10
426.6668
 20
-305.0
 30
0.0
  0
VERTEX
  5
13B6
  8
SEET
 10
426.6668
 20
-330.0
 30
0.0
  0
VERTEX
  5
13B7
  8
SEET
 10
726.6668
 20
-330.0
 30
0.0
  0
VERTEX
  5
13B8
  8
SEET
 10
726.6668
 20
-305.0
 30
0.0
  0
VERTEX
  5
13B9
  8
SEET
 10
806.6668
 20
-305.0
 30
0.0
  0
SEQEND
  5
13BA
  8
SEET
  0
POLYLINE
  5
36B
  8
SEET
 66
     1
 10
0.0
 20
0.0
 30
0.0
 70
     1
  0
VERTEX
  5
13BB
  8
SEET
 10
1356.6668
 20
-305.0
 30
0.0
  0
VERTEX
  5
13BC
  8
SEET
 10
806.6668
 20
-305.0
 30
0.0
  0
VERTEX
  5
13BD
  8
SEET
 10
806.6668
 20
-320.0
 30
0.0
  0
VERTEX
  5
13BE
  8
SEET
 10
806.7627
 20
-320.9745
 30
0.0
  0
VERTEX
  5
13BF
  8
SEET
 10
807.0471
 20
-321.9126
 30
0.0
  0
VERTEX
  5
13C0
  8
SEET
 10
807.509
 20
-322.7772
 30
0.0
  0
VERTEX
  5
13C1
  8
SEET
 10
808.1308
 20
-323.5351
 30
0.0
  0
VERTEX
  5
13C2
  8
SEET
 10
808.8886
 20
-324.1571
 30
0.0
  0
VERTEX
  5
13C3
  8
SEET
 10
809.7531
 20
-324.6193
 30
0.0
  0
VERTEX
  5
13C4
  8
SEET
 10
810.6912
 20
-324.9039
 30
0.0
  0
VERTEX
  5
13C5
  8
SEET
 10
811.6668
 20
-325.0
 30
0.0
  0
VERTEX
  5
13C6
  8
SEET
 10
1081.6668
 20
-325.0
 30
0.0
  0
VERTEX
  5
13C7
  8
SEET
 10
1351.6668
 20
-325.0
 30
0.0
  0
VERTEX
  5
13C8
  8
SEET
 10
1352.6424
 20
-324.9039
 30
0.0
  0
VERTEX
  5
13C9
  8
SEET
 10
1353.5805
 20
-324.6193
 30
0.0
  0
VERTEX
  5
13CA
  8
SEET
 10
1354.445
 20
-324.1571
 30
0.0
  0
VERTEX
  5
13CB
  8
SEET
 10
1355.2028
 20
-323.5351
 30
0.0
  0
VERTEX
  5
13CC
  8
SEET
 10
1355.8246
 20
-322.7772
 30
0.0
  0
VERTEX
  5
13CD
  8
SEET
 10
1356.2865
 20
-321.9126
 30
0.0
  0
VERTEX
  5
13CE
  8
SEET
 10
1356.5709
 20
-320.9744
 30
0.0
  0
VERTEX
  5
13CF
  8
SEET
 10
1356.6668
 20
-320.0
 30
0.0
  0
VERTEX
  5
13D0
  8
SEET
 10
1356.6668
 20
-305.0
 30
0.0
  0
SEQEND
  5
13D1
  8
SEET
  0
LINE
  5
383
  8
SEET
 10
701.6668
 20
-280.0
 30
0.0
 11
701.6668
 21
-330.0
 31
0.0
  0
CIRCLE
  5
384
  8
SEET
 10
1231.6668
 20
-315.0
 30
0.0
 40
4.0
  0
LINE
  5
385
  8
SEET
 10
1216.6668
 20
-315.0
 30
0.0
 11
1246.6668
 21
-315.0
 31
0.0
  0
LINE
  5
386
  8
SEET
 10
1231.6668
 20
-300.0
 30
0.0
 11
1231.6668
 21
-330.0
 31
0.0
  0
CIRCLE
  5
387
  8
SEET
 10
931.6668
 20
-315.0
 30
0.0
 40
4.0
  0
LINE
  5
388
  8
SEET
 10
916.6668
 20
-315.0
 30
0.0
 11
946.6668
 21
-315.0
 31
0.0
  0
LINE
  5
389
  8
SEET
 10
931.6668
 20
-300.0
 30
0.0
 11
931.6668
 21
-330.0
 31
0.0
  0
POLYLINE
  5
38A
  8
SEET
 66
     1
 10
0.0
 20
0.0
 30
0.0
  0
VERTEX
  5
13D2
  8
SEET
 10
457.6668
 20
-305.0
 30
0.0
  0
VERTEX
  5
13D3
  8
SEET
 10
398.6668
 20
-305.0
 30
0.0
  0
VERTEX
  5
13D4
  8
SEET
 10
398.6668
 20
-325.0
 30
0.0
  0
VERTEX
  5
13D5
  8
SEET
 10
400.6668
 20
-325.0
 30
0.0
  0
VERTEX
  5
13D6
  8
SEET
 10
400.6668
 20
-307.0
 30
0.0
  0
VERTEX
  5
13D7
  8
SEET
 10
458.6668
 20
-307.0
 30
0.0
  0
SEQEND
  5
13D8
  8
SEET
  0
POLYLINE
  5
392
  8
SEET
 66
     1
 10
0.0
 20
0.0
 30
0.0
  0
VERTEX
  5
13D9
  8
SEET
 10
466.6668
 20
-330.0
 30
0.0
  0
VERTEX
  5
13DA
  8
SEET
 10
462.809
 20
-315.1625
 30
0.0
  0
VERTEX
  5
13DB
  8
SEET
 10
462.772
 20
-315.0278
 30
0.0
  0
VERTEX
  5
13DC
  8
SEET
 10
462.7308
 20
-314.8932
 30
0.0
  0
VERTEX
  5
13DD
  8
SEET
 10
462.686
 20
-314.7598
 30
0.0
  0
VERTEX
  5
13DE
  8
SEET
 10
462.6374
 20
-314.6277
 30
0.0
  0
VERTEX
  5
13DF
  8
SEET
 10
462.5851
 20
-314.4971
 30
0.0
  0
VERTEX
  5
13E0
  8
SEET
 10
462.5291
 20
-314.3679
 30
0.0
  0
VERTEX
  5
13E1
  8
SEET
 10
462.4695
 20
-314.2405
 30
0.0
  0
VERTEX
  5
13E2
  8
SEET
 10
462.406
 20
-314.1139
 30
0.0
  0
VERTEX
  5
13E3
  8
SEET
 10
459.6668
 20
-308.8462
 30
0.0
  0
VERTEX
  5
13E4
  8
SEET
 10
457.1773
 20
-304.0587
 30
0.0
  0
VERTEX
  5
13E5
  8
SEET
 10
457.0456
 20
-303.8214
 30
0.0
  0
VERTEX
  5
13E6
  8
SEET
 10
456.9007
 20
-303.5908
 30
0.0
  0
VERTEX
  5
13E7
  8
SEET
 10
456.7436
 20
-303.3685
 30
0.0
  0
VERTEX
  5
13E8
  8
SEET
 10
456.5745
 20
-303.1551
 30
0.0
  0
VERTEX
  5
13E9
  8
SEET
 10
456.3941
 20
-302.9512
 30
0.0
  0
VERTEX
  5
13EA
  8
SEET
 10
456.2028
 20
-302.7575
 30
0.0
  0
VERTEX
  5
13EB
  8
SEET
 10
456.0013
 20
-302.5744
 30
0.0
  0
VERTEX
  5
13EC
  8
SEET
 10
455.7897
 20
-302.4023
 30
0.0
  0
VERTEX
  5
13ED
  8
SEET
 10
451.6668
 20
-299.2308
 30
0.0
  0
VERTEX
  5
13EE
  8
SEET
 10
447.3822
 20
-295.935
 30
0.0
  0
VERTEX
  5
13EF
  8
SEET
 10
447.2079
 20
-295.7946
 30
0.0
  0
VERTEX
  5
13F0
  8
SEET
 10
447.0405
 20
-295.6469
 30
0.0
  0
VERTEX
  5
13F1
  8
SEET
 10
446.8798
 20
-295.4919
 30
0.0
  0
VERTEX
  5
13F2
  8
SEET
 10
446.7262
 20
-295.3299
 30
0.0
  0
VERTEX
  5
13F3
  8
SEET
 10
446.58
 20
-295.1611
 30
0.0
  0
VERTEX
  5
13F4
  8
SEET
 10
446.4414
 20
-294.986
 30
0.0
  0
VERTEX
  5
13F5
  8
SEET
 10
446.3108
 20
-294.8049
 30
0.0
  0
VERTEX
  5
13F6
  8
SEET
 10
446.1889
 20
-294.6188
 30
0.0
  0
VERTEX
  5
13F7
  8
SEET
 10
443.6668
 20
-290.5769
 30
0.0
  0
VERTEX
  5
13F8
  8
SEET
 10
440.7308
 20
-285.8718
 30
0.0
  0
VERTEX
  5
13F9
  8
SEET
 10
440.7151
 20
-285.8468
 30
0.0
  0
VERTEX
  5
13FA
  8
SEET
 10
440.6989
 20
-285.8213
 30
0.0
  0
VERTEX
  5
13FB
  8
SEET
 10
440.6825
 20
-285.796
 30
0.0
  0
VERTEX
  5
13FC
  8
SEET
 10
440.666
 20
-285.7706
 30
0.0
  0
VERTEX
  5
13FD
  8
SEET
 10
440.6493
 20
-285.7454
 30
0.0
  0
VERTEX
  5
13FE
  8
SEET
 10
440.6325
 20
-285.7203
 30
0.0
  0
VERTEX
  5
13FF
  8
SEET
 10
440.6155
 20
-285.6953
 30
0.0
  0
VERTEX
  5
1400
  8
SEET
 10
440.5979
 20
-285.6698
 30
0.0
  0
VERTEX
  5
1401
  8
SEET
 10
436.6668
 20
-280.0
 30
0.0
  0
SEQEND
  5
1402
  8
SEET
  0
LINE
  5
3BD
  8
SEET
 10
465.6668
 20
-326.0
 30
0.0
 11
426.6668
 21
-326.0
 31
0.0
  0
POLYLINE
  5
3BE
  8
SEET
 66
     1
 10
0.0
 20
0.0
 30
0.0
 70
     1
  0
VERTEX
  5
1403
  8
SEET
 10
664.1668
 20
-355.0
 30
0.0
  0
VERTEX
  5
1404
  8
SEET
 10
664.1668
 20
-365.0
 30
0.0
  0
VERTEX
  5
1405
  8
SEET
 10
662.1668
 20
-365.0
 30
0.0
  0
VERTEX
  5
1406
  8
SEET
 10
662.1668
 20
-357.0
 30
0.0
  0
VERTEX
  5
1407
  8
SEET
 10
581.1668
 20
-357.0
 30
0.0
  0
VERTEX
  5
1408
  8
SEET
 10
581.1668
 20
-365.0
 30
0.0
  0
VERTEX
  5
1409
  8
SEET
 10
579.1668
 20
-365.0
 30
0.0
  0
VERTEX
  5
140A
  8
SEET
 10
579.1668
 20
-355.0
 30
0.0
  0
SEQEND
  5
140B
  8
SEET
  0
POLYLINE
  5
3C8
  8
SEET
 66
     1
 10
0.0
 20
0.0
 30
0.0
 70
     1
  0
VERTEX
  5
140C
  8
SEET
 10
1354.1668
 20
-355.0
 30
0.0
  0
VERTEX
  5
140D
  8
SEET
 10
1354.1668
 20
-365.0
 30
0.0
  0
VERTEX
  5
140E
  8
SEET
 10
1352.1668
 20
-365.0
 30
0.0
  0
VERTEX
  5
140F
  8
SEET
 10
1352.1668
 20
-357.0
 30
0.0
  0
VERTEX
  5
1410
  8
SEET
 10
1271.1668
 20
-357.0
 30
0.0
  0
VERTEX
  5
1411
  8
SEET
 10
1271.1668
 20
-365.0
 30
0.0
  0
VERTEX
  5
1412
  8
SEET
 10
1269.1668
 20
-365.0
 30
0.0
  0
VERTEX
  5
1413
  8
SEET
 10
1269.1668
 20
-355.0
 30
0.0
  0
SEQEND
  5
1414
  8
SEET
  0
LINE
  5
3D2
  8
SEET
  6
MCDASH6
 10
1311.6668
 20
-345.0
 30
0.0
 11
1311.6668
 21
-1230.0
 31
0.0
  0
LINE
  5
3D3
  8
SEET
  6
MCDASH6
 10
1334.1668
 20
-1005.0
 30
0.0
 11
603.4168
 21
-1005.0
 31
0.0
  0
POLYLINE
  5
3D4
  8
SEET
 66
     1
 10
0.0
 20
0.0
 30
0.0
 70
     1
  0
VERTEX
  5
1415
  8
SEET
 10
586.6668
 20
-357.0
 30
0.0
  0
VERTEX
  5
1416
  8
SEET
 10
586.6668
 20
-359.0
 30
0.0
  0
VERTEX
  5
1417
  8
SEET
 10
587.7519
 20
-359.0
 30
0.0
  0
VERTEX
  5
1418
  8
SEET
 10
588.5218
 20
-359.0748
 30
0.0
  0
VERTEX
  5
1419
  8
SEET
 10
589.263
 20
-359.2964
 30
0.0
  0
VERTEX
  5
141A
  8
SEET
 10
589.9476
 20
-359.6565
 30
0.0
  0
VERTEX
  5
141B
  8
SEET
 10
590.5501
 20
-360.1417
 30
0.0
  0
VERTEX
  5
141C
  8
SEET
 10
591.0479
 20
-360.7337
 30
0.0
  0
VERTEX
  5
141D
  8
SEET
 10
591.4225
 20
-361.4105
 30
0.0
  0
VERTEX
  5
141E
  8
SEET
 10
591.6598
 20
-362.1468
 30
0.0
  0
VERTEX
  5
141F
  8
SEET
 10
591.751
 20
-362.914
 30
0.0
  0
VERTEX
  5
1420
  8
SEET
 10
593.6668
 20
-452.0
 30
0.0
  0
VERTEX
  5
1421
  8
SEET
 10
601.6668
 20
-462.0
 30
0.0
  0
VERTEX
  5
1422
  8
SEET
 10
601.6668
 20
-467.0
 30
0.0
  0
VERTEX
  5
1423
  8
SEET
 10
641.6668
 20
-467.0
 30
0.0
  0
VERTEX
  5
1424
  8
SEET
 10
641.6668
 20
-462.0
 30
0.0
  0
VERTEX
  5
1425
  8
SEET
 10
649.6668
 20
-451.5
 30
0.0
  0
VERTEX
  5
1426
  8
SEET
 10
651.5821
 20
-362.9135
 30
0.0
  0
VERTEX
  5
1427
  8
SEET
 10
651.6733
 20
-362.1464
 30
0.0
  0
VERTEX
  5
1428
  8
SEET
 10
651.9107
 20
-361.4103
 30
0.0
  0
VERTEX
  5
1429
  8
SEET
 10
652.2853
 20
-360.7335
 30
0.0
  0
VERTEX
  5
142A
  8
SEET
 10
652.7831
 20
-360.1415
 30
0.0
  0
VERTEX
  5
142B
  8
SEET
 10
653.3856
 20
-359.6564
 30
0.0
  0
VERTEX
  5
142C
  8
SEET
 10
654.0702
 20
-359.2964
 30
0.0
  0
VERTEX
  5
142D
  8
SEET
 10
654.8113
 20
-359.0748
 30
0.0
  0
VERTEX
  5
142E
  8
SEET
 10
655.5812
 20
-359.0
 30
0.0
  0
VERTEX
  5
142F
  8
SEET
 10
656.6668
 20
-359.0
 30
0.0
  0
VERTEX
  5
1430
  8
SEET
 10
656.6668
 20
-357.0
 30
0.0
  0
VERTEX
  5
1431
  8
SEET
 10
586.6668
 20
-357.0
 30
0.0
  0
SEQEND
  5
1432
  8
SEET
  0
POLYLINE
  5
3F3
  8
SEET
 66
     1
 10
0.0
 20
0.0
 30
0.0
 70
     1
  0
VERTEX
  5
1433
  8
SEET
 10
656.6668
 20
-357.0
 30
0.0
  0
VERTEX
  5
1434
  8
SEET
 10
586.6668
 20
-357.0
 30
0.0
  0
VERTEX
  5
1435
  8
SEET
 10
586.6668
 20
-359.0
 30
0.0
  0
VERTEX
  5
1436
  8
SEET
 10
656.6668
 20
-359.0
 30
0.0
  0
SEQEND
  5
1437
  8
SEET
  0
LINE
  5
3F9
  8
SEET
 10
605.1668
 20
-462.0
 30
0.0
 11
638.6668
 21
-462.0
 31
0.0
  0
POLYLINE
  5
3FA
  8
SEET
 66
     1
 10
0.0
 20
0.0
 30
0.0
 70
     1
  0
VERTEX
  5
1438
  8
SEET
 10
608.1668
 20
-1113.0
 30
0.0
  0
VERTEX
  5
1439
  8
SEET
 10
608.1668
 20
-1150.0
 30
0.0
  0
VERTEX
  5
143A
  8
SEET
 10
608.2627
 20
-1150.9745
 30
0.0
  0
VERTEX
  5
143B
  8
SEET
 10
608.5471
 20
-1151.9126
 30
0.0
  0
VERTEX
  5
143C
  8
SEET
 10
609.009
 20
-1152.7772
 30
0.0
  0
VERTEX
  5
143D
  8
SEET
 10
609.6308
 20
-1153.5351
 30
0.0
  0
VERTEX
  5
143E
  8
SEET
 10
610.3886
 20
-1154.1571
 30
0.0
  0
VERTEX
  5
143F
  8
SEET
 10
611.2531
 20
-1154.6193
 30
0.0
  0
VERTEX
  5
1440
  8
SEET
 10
612.1912
 20
-1154.9039
 30
0.0
  0
VERTEX
  5
1441
  8
SEET
 10
613.1668
 20
-1155.0
 30
0.0
  0
VERTEX
  5
1442
  8
SEET
 10
621.6668
 20
-1155.0
 30
0.0
  0
VERTEX
  5
1443
  8
SEET
 10
630.1668
 20
-1155.0
 30
0.0
  0
VERTEX
  5
1444
  8
SEET
 10
631.1424
 20
-1154.9039
 30
0.0
  0
VERTEX
  5
1445
  8
SEET
 10
632.0805
 20
-1154.6193
 30
0.0
  0
VERTEX
  5
1446
  8
SEET
 10
632.945
 20
-1154.1571
 30
0.0
  0
VERTEX
  5
1447
  8
SEET
 10
633.7028
 20
-1153.5351
 30
0.0
  0
VERTEX
  5
1448
  8
SEET
 10
634.3246
 20
-1152.7772
 30
0.0
  0
VERTEX
  5
1449
  8
SEET
 10
634.7865
 20
-1151.9126
 30
0.0
  0
VERTEX
  5
144A
  8
SEET
 10
635.0709
 20
-1150.9744
 30
0.0
  0
VERTEX
  5
144B
  8
SEET
 10
635.1668
 20
-1150.0
 30
0.0
  0
VERTEX
  5
144C
  8
SEET
 10
635.1668
 20
-1113.0
 30
0.0
  0
VERTEX
  5
144D
  8
SEET
 10
608.1668
 20
-1113.0
 30
0.0
  0
SEQEND
  5
144E
  8
SEET
  0
POLYLINE
  5
412
  8
SEET
 66
     1
 10
0.0
 20
0.0
 30
0.0
 70
     1
  0
VERTEX
  5
144F
  8
SEET
 10
621.6668
 20
-1113.0
 30
0.0
  0
VERTEX
  5
1450
  8
SEET
 10
603.6668
 20
-1113.0
 30
0.0
  0
VERTEX
  5
1451
  8
SEET
 10
603.0814
 20
-1112.9423
 30
0.0
  0
VERTEX
  5
1452
  8
SEET
 10
602.5186
 20
-1112.7716
 30
0.0
  0
VERTEX
  5
1453
  8
SEET
 10
601.9999
 20
-1112.4943
 30
0.0
  0
VERTEX
  5
1454
  8
SEET
 10
601.5452
 20
-1112.1211
 30
0.0
  0
VERTEX
  5
1455
  8
SEET
 10
601.1721
 20
-1111.6663
 30
0.0
  0
VERTEX
  5
1456
  8
SEET
 10
600.895
 20
-1111.1475
 30
0.0
  0
VERTEX
  5
1457
  8
SEET
 10
600.7243
 20
-1110.5847
 30
0.0
  0
VERTEX
  5
1458
  8
SEET
 10
600.6668
 20
-1110.0
 30
0.0
  0
VERTEX
  5
1459
  8
SEET
 10
600.6668
 20
-1108.0
 30
0.0
  0
VERTEX
  5
145A
  8
SEET
 10
600.6668
 20
-1106.0
 30
0.0
  0
VERTEX
  5
145B
  8
SEET
 10
600.7243
 20
-1105.4154
 30
0.0
  0
VERTEX
  5
145C
  8
SEET
 10
600.895
 20
-1104.8525
 30
0.0
  0
VERTEX
  5
145D
  8
SEET
 10
601.1721
 20
-1104.3337
 30
0.0
  0
VERTEX
  5
145E
  8
SEET
 10
601.5452
 20
-1103.8789
 30
0.0
  0
VERTEX
  5
145F
  8
SEET
 10
601.9999
 20
-1103.5057
 30
0.0
  0
VERTEX
  5
1460
  8
SEET
 10
602.5186
 20
-1103.2284
 30
0.0
  0
VERTEX
  5
1461
  8
SEET
 10
603.0814
 20
-1103.0577
 30
0.0
  0
VERTEX
  5
1462
  8
SEET
 10
603.6668
 20
-1103.0
 30
0.0
  0
VERTEX
  5
1463
  8
SEET
 10
621.6668
 20
-1103.0
 30
0.0
  0
VERTEX
  5
1464
  8
SEET
 10
639.6668
 20
-1103.0
 30
0.0
  0
VERTEX
  5
1465
  8
SEET
 10
640.2522
 20
-1103.0577
 30
0.0
  0
VERTEX
  5
1466
  8
SEET
 10
640.815
 20
-1103.2284
 30
0.0
  0
VERTEX
  5
1467
  8
SEET
 10
641.3337
 20
-1103.5057
 30
0.0
  0
VERTEX
  5
1468
  8
SEET
 10
641.7884
 20
-1103.8789
 30
0.0
  0
VERTEX
  5
1469
  8
SEET
 10
642.1615
 20
-1104.3337
 30
0.0
  0
VERTEX
  5
146A
  8
SEET
 10
642.4386
 20
-1104.8525
 30
0.0
  0
VERTEX
  5
146B
  8
SEET
 10
642.6093
 20
-1105.4154
 30
0.0
  0
VERTEX
  5
146C
  8
SEET
 10
642.6668
 20
-1106.0
 30
0.0
  0
VERTEX
  5
146D
  8
SEET
 10
642.6668
 20
-1108.0
 30
0.0
  0
VERTEX
  5
146E
  8
SEET
 10
642.6668
 20
-1110.0
 30
0.0
  0
VERTEX
  5
146F
  8
SEET
 10
642.6093
 20
-1110.5846
 30
0.0
  0
VERTEX
  5
1470
  8
SEET
 10
642.4386
 20
-1111.1475
 30
0.0
  0
VERTEX
  5
1471
  8
SEET
 10
642.1615
 20
-1111.6663
 30
0.0
  0
VERTEX
  5
1472
  8
SEET
 10
641.7884
 20
-1112.1211
 30
0.0
  0
VERTEX
  5
1473
  8
SEET
 10
641.3337
 20
-1112.4943
 30
0.0
  0
VERTEX
  5
1474
  8
SEET
 10
640.815
 20
-1112.7716
 30
0.0
  0
VERTEX
  5
1475
  8
SEET
 10
640.2522
 20
-1112.9423
 30
0.0
  0
VERTEX
  5
1476
  8
SEET
 10
639.6668
 20
-1113.0
 30
0.0
  0
VERTEX
  5
1477
  8
SEET
 10
621.6668
 20
-1113.0
 30
0.0
  0
SEQEND
  5
1478
  8
SEET
  0
POLYLINE
  5
43D
  8
SEET
 66
     1
 10
0.0
 20
0.0
 30
0.0
 70
     1
  0
VERTEX
  5
1479
  8
SEET
 10
601.6668
 20
-980.0
 30
0.0
  0
VERTEX
  5
147A
  8
SEET
 10
600.1382
 20
-983.2101
 30
0.0
  0
VERTEX
  5
147B
  8
SEET
 10
599.9127
 20
-983.7198
 30
0.0
  0
VERTEX
  5
147C
  8
SEET
 10
599.7165
 20
-984.2395
 30
0.0
  0
VERTEX
  5
147D
  8
SEET
 10
599.5495
 20
-984.7695
 30
0.0
  0
VERTEX
  5
147E
  8
SEET
 10
599.4122
 20
-985.3077
 30
0.0
  0
VERTEX
  5
147F
  8
SEET
 10
599.305
 20
-985.8528
 30
0.0
  0
VERTEX
  5
1480
  8
SEET
 10
599.2282
 20
-986.403
 30
0.0
  0
VERTEX
  5
1481
  8
SEET
 10
599.1821
 20
-986.9566
 30
0.0
  0
VERTEX
  5
1482
  8
SEET
 10
599.1668
 20
-987.5094
 30
0.0
  0
VERTEX
  5
1483
  8
SEET
 10
599.1668
 20
-1005.0
 30
0.0
  0
VERTEX
  5
1484
  8
SEET
 10
599.1668
 20
-1022.4906
 30
0.0
  0
VERTEX
  5
1485
  8
SEET
 10
599.1821
 20
-1023.0436
 30
0.0
  0
VERTEX
  5
1486
  8
SEET
 10
599.2282
 20
-1023.5972
 30
0.0
  0
VERTEX
  5
1487
  8
SEET
 10
599.305
 20
-1024.1473
 30
0.0
  0
VERTEX
  5
1488
  8
SEET
 10
599.4122
 20
-1024.6924
 30
0.0
  0
VERTEX
  5
1489
  8
SEET
 10
599.5495
 20
-1025.2307
 30
0.0
  0
VERTEX
  5
148A
  8
SEET
 10
599.7165
 20
-1025.7605
 30
0.0
  0
VERTEX
  5
148B
  8
SEET
 10
599.9127
 20
-1026.2802
 30
0.0
  0
VERTEX
  5
148C
  8
SEET
 10
600.1382
 20
-1026.7899
 30
0.0
  0
VERTEX
  5
148D
  8
SEET
 10
601.6668
 20
-1030.0
 30
0.0
  0
VERTEX
  5
148E
  8
SEET
 10
641.6668
 20
-1030.0
 30
0.0
  0
VERTEX
  5
148F
  8
SEET
 10
643.1954
 20
-1026.7899
 30
0.0
  0
VERTEX
  5
1490
  8
SEET
 10
643.4209
 20
-1026.2802
 30
0.0
  0
VERTEX
  5
1491
  8
SEET
 10
643.6171
 20
-1025.7605
 30
0.0
  0
VERTEX
  5
1492
  8
SEET
 10
643.7841
 20
-1025.2307
 30
0.0
  0
VERTEX
  5
1493
  8
SEET
 10
643.9214
 20
-1024.6924
 30
0.0
  0
VERTEX
  5
1494
  8
SEET
 10
644.0286
 20
-1024.1473
 30
0.0
  0
VERTEX
  5
1495
  8
SEET
 10
644.1054
 20
-1023.597
 30
0.0
  0
VERTEX
  5
1496
  8
SEET
 10
644.1515
 20
-1023.0434
 30
0.0
  0
VERTEX
  5
1497
  8
SEET
 10
644.1668
 20
-1022.4906
 30
0.0
  0
VERTEX
  5
1498
  8
SEET
 10
644.1668
 20
-1019.5
 30
0.0
  0
VERTEX
  5
1499
  8
SEET
 10
674.1668
 20
-1019.5
 30
0.0
  0
VERTEX
  5
149A
  8
SEET
 10
674.1668
 20
-990.5
 30
0.0
  0
VERTEX
  5
149B
  8
SEET
 10
644.1668
 20
-990.5
 30
0.0
  0
VERTEX
  5
149C
  8
SEET
 10
644.1668
 20
-987.5094
 30
0.0
  0
VERTEX
  5
149D
  8
SEET
 10
644.1515
 20
-986.9566
 30
0.0
  0
VERTEX
  5
149E
  8
SEET
 10
644.1054
 20
-986.403
 30
0.0
  0
VERTEX
  5
149F
  8
SEET
 10
644.0286
 20
-985.8527
 30
0.0
  0
VERTEX
  5
14A0
  8
SEET
 10
643.9214
 20
-985.3076
 30
0.0
  0
VERTEX
  5
14A1
  8
SEET
 10
643.7841
 20
-984.7693
 30
0.0
  0
VERTEX
  5
14A2
  8
SEET
 10
643.6171
 20
-984.2395
 30
0.0
  0
VERTEX
  5
14A3
  8
SEET
 10
643.4209
 20
-983.7198
 30
0.0
  0
VERTEX
  5
14A4
  8
SEET
 10
643.1954
 20
-983.2101
 30
0.0
  0
VERTEX
  5
14A5
  8
SEET
 10
641.6668
 20
-980.0
 30
0.0
  0
VERTEX
  5
14A6
  8
SEET
 10
601.6668
 20
-980.0
 30
0.0
  0
SEQEND
  5
14A7
  8
SEET
  0
ARC
  5
46D
  8
SEET
 10
676.1668
 20
-1005.5
 30
0.0
 40
35.0322
 50
163.025513
 51
195.419492
  0
LINE
  5
46E
  8
SEET
  6
MCDASH6
 10
621.6668
 20
-345.0
 30
0.0
 11
621.6668
 21
-1230.0
 31
0.0
  0
LINE
  5
46F
  8
SEET
 10
1521.6668
 20
-1155.0
 30
0.0
 11
21.6668
 21
-1155.0
 31
0.0
  0
LINE
  5
470
  8
SEET
 10
766.6668
 20
-403.5
 30
0.0
 11
766.6668
 21
-348.0
 31
0.0
  0
LINE
  5
471
  8
SEET
 10
1081.6668
 20
-365.0
 30
0.0
 11
1081.6668
 21
-265.0
 31
0.0
  0
POLYLINE
  5
472
  8
SEET
 66
     1
 10
0.0
 20
0.0
 30
0.0
 70
     1
  0
VERTEX
  5
14A8
  8
SEET
 10
-593.3332
 20
1090.0
 30
0.0
  0
VERTEX
  5
14A9
  8
SEET
 10
-593.3332
 20
1045.0
 30
0.0
  0
VERTEX
  5
14AA
  8
SEET
 10
-618.3332
 20
1045.0
 30
0.0
  0
VERTEX
  5
14AB
  8
SEET
 10
-618.3332
 20
1090.0
 30
0.0
  0
SEQEND
  5
14AC
  8
SEET
  0
POLYLINE
  5
478
  8
SEET
 66
     1
 10
0.0
 20
0.0
 30
0.0
 70
     1
  0
VERTEX
  5
14AD
  8
SEET
 10
-618.3332
 20
1088.0
 30
0.0
  0
VERTEX
  5
14AE
  8
SEET
 10
-641.3332
 20
1088.0
 30
0.0
  0
VERTEX
  5
14AF
  8
SEET
 10
-641.3332
 20
1077.0
 30
0.0
  0
VERTEX
  5
14B0
  8
SEET
 10
-641.3332
 20
1085.0
 30
0.0
  0
VERTEX
  5
14B1
  8
SEET
 10
-639.3332
 20
1085.0
 30
0.0
  0
VERTEX
  5
14B2
  8
SEET
 10
-639.3332
 20
1077.0
 30
0.0
  0
VERTEX
  5
14B3
  8
SEET
 10
-639.3715
 20
1076.6102
 30
0.0
  0
VERTEX
  5
14B4
  8
SEET
 10
-639.4853
 20
1076.235
 30
0.0
  0
VERTEX
  5
14B5
  8
SEET
 10
-639.6701
 20
1075.8891
 30
0.0
  0
VERTEX
  5
14B6
  8
SEET
 10
-639.9188
 20
1075.586
 30
0.0
  0
VERTEX
  5
14B7
  8
SEET
 10
-640.2219
 20
1075.3372
 30
0.0
  0
VERTEX
  5
14B8
  8
SEET
 10
-640.5677
 20
1075.1523
 30
0.0
  0
VERTEX
  5
14B9
  8
SEET
 10
-640.943
 20
1075.0384
 30
0.0
  0
VERTEX
  5
14BA
  8
SEET
 10
-641.3332
 20
1075.0
 30
0.0
  0
VERTEX
  5
14BB
  8
SEET
 10
-641.7234
 20
1075.0384
 30
0.0
  0
VERTEX
  5
14BC
  8
SEET
 10
-642.0987
 20
1075.1523
 30
0.0
  0
VERTEX
  5
14BD
  8
SEET
 10
-642.4445
 20
1075.3372
 30
0.0
  0
VERTEX
  5
14BE
  8
SEET
 10
-642.7476
 20
1075.586
 30
0.0
  0
VERTEX
  5
14BF
  8
SEET
 10
-642.9963
 20
1075.8891
 30
0.0
  0
VERTEX
  5
14C0
  8
SEET
 10
-643.1811
 20
1076.235
 30
0.0
  0
VERTEX
  5
14C1
  8
SEET
 10
-643.2948
 20
1076.6102
 30
0.0
  0
VERTEX
  5
14C2
  8
SEET
 10
-643.3332
 20
1077.0
 30
0.0
  0
VERTEX
  5
14C3
  8
SEET
 10
-643.3332
 20
1090.0
 30
0.0
  0
VERTEX
  5
14C4
  8
SEET
 10
-618.3332
 20
1090.0
 30
0.0
  0
VERTEX
  5
14C5
  8
SEET
 10
-618.3332
 20
1088.0
 30
0.0
  0
SEQEND
  5
14C6
  8
SEET
  0
POLYLINE
  5
493
  8
SEET
 66
     1
 10
0.0
 20
0.0
 30
0.0
 70
     1
  0
VERTEX
  5
14C7
  8
SEET
 10
-443.3332
 20
1190.0
 30
0.0
  0
VERTEX
  5
14C8
  8
SEET
 10
-443.3332
 20
1090.0
 30
0.0
  0
VERTEX
  5
14C9
  8
SEET
 10
-618.3332
 20
1090.0
 30
0.0
  0
VERTEX
  5
14CA
  8
SEET
 10
-618.3332
 20
1190.0
 30
0.0
  0
SEQEND
  5
14CB
  8
SEET
  0
POLYLINE
  5
499
  8
SEET
 66
     1
 10
0.0
 20
0.0
 30
0.0
 70
     1
  0
VERTEX
  5
14CC
  8
SEET
 10
-593.3332
 20
495.0
 30
0.0
  0
VERTEX
  5
14CD
  8
SEET
 10
-593.3332
 20
90.0
 30
0.0
  0
VERTEX
  5
14CE
  8
SEET
 10
-618.3332
 20
90.0
 30
0.0
  0
VERTEX
  5
14CF
  8
SEET
 10
-618.3332
 20
115.0
 30
0.0
  0
VERTEX
  5
14D0
  8
SEET
 10
-643.3332
 20
115.0
 30
0.0
  0
VERTEX
  5
14D1
  8
SEET
 10
-643.3332
 20
415.0
 30
0.0
  0
VERTEX
  5
14D2
  8
SEET
 10
-618.3332
 20
415.0
 30
0.0
  0
VERTEX
  5
14D3
  8
SEET
 10
-618.3332
 20
495.0
 30
0.0
  0
SEQEND
  5
14D4
  8
SEET
  0
POLYLINE
  5
4A3
  8
SEET
 66
     1
 10
0.0
 20
0.0
 30
0.0
 70
     1
  0
VERTEX
  5
14D5
  8
SEET
 10
-618.3332
 20
1045.0
 30
0.0
  0
VERTEX
  5
14D6
  8
SEET
 10
-618.3332
 20
495.0
 30
0.0
  0
VERTEX
  5
14D7
  8
SEET
 10
-633.3332
 20
495.0
 30
0.0
  0
VERTEX
  5
14D8
  8
SEET
 10
-634.3088
 20
495.0961
 30
0.0
  0
VERTEX
  5
14D9
  8
SEET
 10
-635.2469
 20
495.3807
 30
0.0
  0
VERTEX
  5
14DA
  8
SEET
 10
-636.1114
 20
495.8429
 30
0.0
  0
VERTEX
  5
14DB
  8
SEET
 10
-636.8692
 20
496.4649
 30
0.0
  0
VERTEX
  5
14DC
  8
SEET
 10
-637.491
 20
497.2228
 30
0.0
  0
VERTEX
  5
14DD
  8
SEET
 10
-637.9529
 20
498.0874
 30
0.0
  0
VERTEX
  5
14DE
  8
SEET
 10
-638.2373
 20
499.0255
 30
0.0
  0
VERTEX
  5
14DF
  8
SEET
 10
-638.3332
 20
500.0
 30
0.0
  0
VERTEX
  5
14E0
  8
SEET
 10
-638.3332
 20
770.0
 30
0.0
  0
VERTEX
  5
14E1
  8
SEET
 10
-638.3332
 20
1040.0
 30
0.0
  0
VERTEX
  5
14E2
  8
SEET
 10
-638.2373
 20
1040.9743
 30
0.0
  0
VERTEX
  5
14E3
  8
SEET
 10
-637.9529
 20
1041.9126
 30
0.0
  0
VERTEX
  5
14E4
  8
SEET
 10
-637.491
 20
1042.7772
 30
0.0
  0
VERTEX
  5
14E5
  8
SEET
 10
-636.8692
 20
1043.5351
 30
0.0
  0
VERTEX
  5
14E6
  8
SEET
 10
-636.1114
 20
1044.1571
 30
0.0
  0
VERTEX
  5
14E7
  8
SEET
 10
-635.2469
 20
1044.6193
 30
0.0
  0
VERTEX
  5
14E8
  8
SEET
 10
-634.3088
 20
1044.9039
 30
0.0
  0
VERTEX
  5
14E9
  8
SEET
 10
-633.3332
 20
1045.0
 30
0.0
  0
VERTEX
  5
14EA
  8
SEET
 10
-618.3332
 20
1045.0
 30
0.0
  0
SEQEND
  5
14EB
  8
SEET
  0
LINE
  5
4BB
  8
SEET
 10
-593.3332
 20
390.0
 30
0.0
 11
-643.3332
 21
390.0
 31
0.0
  0
CIRCLE
  5
4BC
  8
SEET
 10
-628.3332
 20
920.0
 30
0.0
 40
4.0
  0
LINE
  5
4BD
  8
SEET
 10
-628.3332
 20
905.0
 30
0.0
 11
-628.3332
 21
935.0
 31
0.0
  0
LINE
  5
4BE
  8
SEET
 10
-613.3332
 20
920.0
 30
0.0
 11
-643.3332
 21
920.0
 31
0.0
  0
CIRCLE
  5
4BF
  8
SEET
 10
-628.3332
 20
620.0
 30
0.0
 40
4.0
  0
LINE
  5
4C0
  8
SEET
 10
-628.3332
 20
605.0
 30
0.0
 11
-628.3332
 21
635.0
 31
0.0
  0
LINE
  5
4C1
  8
SEET
 10
-613.3332
 20
620.0
 30
0.0
 11
-643.3332
 21
620.0
 31
0.0
  0
POLYLINE
  5
4C2
  8
SEET
 66
     1
 10
0.0
 20
0.0
 30
0.0
  0
VERTEX
  5
14EC
  8
SEET
 10
-618.3332
 20
146.0
 30
0.0
  0
VERTEX
  5
14ED
  8
SEET
 10
-618.3332
 20
87.0
 30
0.0
  0
VERTEX
  5
14EE
  8
SEET
 10
-638.3332
 20
87.0
 30
0.0
  0
VERTEX
  5
14EF
  8
SEET
 10
-638.3332
 20
89.0
 30
0.0
  0
VERTEX
  5
14F0
  8
SEET
 10
-620.3332
 20
89.0
 30
0.0
  0
VERTEX
  5
14F1
  8
SEET
 10
-620.3332
 20
147.0
 30
0.0
  0
SEQEND
  5
14F2
  8
SEET
  0
POLYLINE
  5
4CA
  8
SEET
 66
     1
 10
0.0
 20
0.0
 30
0.0
  0
VERTEX
  5
14F3
  8
SEET
 10
-643.3332
 20
155.0
 30
0.0
  0
VERTEX
  5
14F4
  8
SEET
 10
-628.4957
 20
151.1422
 30
0.0
  0
VERTEX
  5
14F5
  8
SEET
 10
-628.3598
 20
151.1048
 30
0.0
  0
VERTEX
  5
14F6
  8
SEET
 10
-628.2252
 20
151.0637
 30
0.0
  0
VERTEX
  5
14F7
  8
SEET
 10
-628.0919
 20
151.0188
 30
0.0
  0
VERTEX
  5
14F8
  8
SEET
 10
-627.9598
 20
150.9701
 30
0.0
  0
VERTEX
  5
14F9
  8
SEET
 10
-627.8291
 20
150.9178
 30
0.0
  0
VERTEX
  5
14FA
  8
SEET
 10
-627.7001
 20
150.8618
 30
0.0
  0
VERTEX
  5
14FB
  8
SEET
 10
-627.5726
 20
150.8022
 30
0.0
  0
VERTEX
  5
14FC
  8
SEET
 10
-627.4471
 20
150.7392
 30
0.0
  0
VERTEX
  5
14FD
  8
SEET
 10
-622.1794
 20
148.0
 30
0.0
  0
VERTEX
  5
14FE
  8
SEET
 10
-617.3919
 20
145.5105
 30
0.0
  0
VERTEX
  5
14FF
  8
SEET
 10
-617.1535
 20
145.3782
 30
0.0
  0
VERTEX
  5
1500
  8
SEET
 10
-616.923
 20
145.2333
 30
0.0
  0
VERTEX
  5
1501
  8
SEET
 10
-616.7008
 20
145.076
 30
0.0
  0
VERTEX
  5
1502
  8
SEET
 10
-616.4874
 20
144.9069
 30
0.0
  0
VERTEX
  5
1503
  8
SEET
 10
-616.2835
 20
144.7264
 30
0.0
  0
VERTEX
  5
1504
  8
SEET
 10
-616.0898
 20
144.5352
 30
0.0
  0
VERTEX
  5
1505
  8
SEET
 10
-615.9068
 20
144.3336
 30
0.0
  0
VERTEX
  5
1506
  8
SEET
 10
-615.7355
 20
144.1229
 30
0.0
  0
VERTEX
  5
1507
  8
SEET
 10
-612.564
 20
140.0
 30
0.0
  0
VERTEX
  5
1508
  8
SEET
 10
-609.2682
 20
135.7154
 30
0.0
  0
VERTEX
  5
1509
  8
SEET
 10
-609.1286
 20
135.5421
 30
0.0
  0
VERTEX
  5
150A
  8
SEET
 10
-608.981
 20
135.3746
 30
0.0
  0
VERTEX
  5
150B
  8
SEET
 10
-608.826
 20
135.2139
 30
0.0
  0
VERTEX
  5
150C
  8
SEET
 10
-608.664
 20
135.0602
 30
0.0
  0
VERTEX
  5
150D
  8
SEET
 10
-608.4953
 20
134.914
 30
0.0
  0
VERTEX
  5
150E
  8
SEET
 10
-608.3202
 20
134.7754
 30
0.0
  0
VERTEX
  5
150F
  8
SEET
 10
-608.1392
 20
134.6448
 30
0.0
  0
VERTEX
  5
1510
  8
SEET
 10
-607.952
 20
134.5221
 30
0.0
  0
VERTEX
  5
1511
  8
SEET
 10
-603.9101
 20
132.0
 30
0.0
  0
VERTEX
  5
1512
  8
SEET
 10
-599.205
 20
129.064
 30
0.0
  0
VERTEX
  5
1513
  8
SEET
 10
-599.179
 20
129.0477
 30
0.0
  0
VERTEX
  5
1514
  8
SEET
 10
-599.1535
 20
129.0315
 30
0.0
  0
VERTEX
  5
1515
  8
SEET
 10
-599.1281
 20
129.0151
 30
0.0
  0
VERTEX
  5
1516
  8
SEET
 10
-599.1028
 20
128.9985
 30
0.0
  0
VERTEX
  5
1517
  8
SEET
 10
-599.0777
 20
128.9819
 30
0.0
  0
VERTEX
  5
1518
  8
SEET
 10
-599.0525
 20
128.965
 30
0.0
  0
VERTEX
  5
1519
  8
SEET
 10
-599.0275
 20
128.948
 30
0.0
  0
VERTEX
  5
151A
  8
SEET
 10
-599.003
 20
128.9311
 30
0.0
  0
VERTEX
  5
151B
  8
SEET
 10
-593.3332
 20
125.0
 30
0.0
  0
SEQEND
  5
151C
  8
SEET
  0
LINE
  5
4F5
  8
SEET
 10
-639.3332
 20
154.0
 30
0.0
 11
-639.3332
 21
115.0
 31
0.0
  0
LINE
  5
4F6
  8
SEET
 10
-774.8332
 20
388.5
 30
0.0
 11
-774.8332
 21
422.0
 31
0.0
  0
POLYLINE
  5
4F7
  8
SEET
 66
     1
 10
0.0
 20
0.0
 30
0.0
 70
     1
  0
VERTEX
  5
151D
  8
SEET
 10
-1426.3332
 20
391.5
 30
0.0
  0
VERTEX
  5
151E
  8
SEET
 10
-1463.3332
 20
391.5
 30
0.0
  0
VERTEX
  5
151F
  8
SEET
 10
-1464.3088
 20
391.5961
 30
0.0
  0
VERTEX
  5
1520
  8
SEET
 10
-1465.2469
 20
391.8807
 30
0.0
  0
VERTEX
  5
1521
  8
SEET
 10
-1466.1114
 20
392.3429
 30
0.0
  0
VERTEX
  5
1522
  8
SEET
 10
-1466.8692
 20
392.9649
 30
0.0
  0
VERTEX
  5
1523
  8
SEET
 10
-1467.491
 20
393.7228
 30
0.0
  0
VERTEX
  5
1524
  8
SEET
 10
-1467.9529
 20
394.5874
 30
0.0
  0
VERTEX
  5
1525
  8
SEET
 10
-1468.2373
 20
395.5255
 30
0.0
  0
VERTEX
  5
1526
  8
SEET
 10
-1468.3332
 20
396.5
 30
0.0
  0
VERTEX
  5
1527
  8
SEET
 10
-1468.3332
 20
405.0
 30
0.0
  0
VERTEX
  5
1528
  8
SEET
 10
-1468.3332
 20
413.5
 30
0.0
  0
VERTEX
  5
1529
  8
SEET
 10
-1468.2373
 20
414.4743
 30
0.0
  0
VERTEX
  5
152A
  8
SEET
 10
-1467.9529
 20
415.4126
 30
0.0
  0
VERTEX
  5
152B
  8
SEET
 10
-1467.491
 20
416.2772
 30
0.0
  0
VERTEX
  5
152C
  8
SEET
 10
-1466.8692
 20
417.0351
 30
0.0
  0
VERTEX
  5
152D
  8
SEET
 10
-1466.1114
 20
417.6571
 30
0.0
  0
VERTEX
  5
152E
  8
SEET
 10
-1465.2469
 20
418.1193
 30
0.0
  0
VERTEX
  5
152F
  8
SEET
 10
-1464.3088
 20
418.4039
 30
0.0
  0
VERTEX
  5
1530
  8
SEET
 10
-1463.3332
 20
418.5
 30
0.0
  0
VERTEX
  5
1531
  8
SEET
 10
-1426.3332
 20
418.5
 30
0.0
  0
VERTEX
  5
1532
  8
SEET
 10
-1426.3332
 20
391.5
 30
0.0
  0
SEQEND
  5
1533
  8
SEET
  0
POLYLINE
  5
50F
  8
SEET
 66
     1
 10
0.0
 20
0.0
 30
0.0
 70
     1
  0
VERTEX
  5
1534
  8
SEET
 10
-1426.3332
 20
405.0
 30
0.0
  0
VERTEX
  5
1535
  8
SEET
 10
-1426.3332
 20
387.0
 30
0.0
  0
VERTEX
  5
1536
  8
SEET
 10
-1426.2757
 20
386.4153
 30
0.0
  0
VERTEX
  5
1537
  8
SEET
 10
-1426.105
 20
385.8525
 30
0.0
  0
VERTEX
  5
1538
  8
SEET
 10
-1425.8279
 20
385.3337
 30
0.0
  0
VERTEX
  5
1539
  8
SEET
 10
-1425.4548
 20
384.8789
 30
0.0
  0
VERTEX
  5
153A
  8
SEET
 10
-1425.0001
 20
384.5057
 30
0.0
  0
VERTEX
  5
153B
  8
SEET
 10
-1424.4814
 20
384.2284
 30
0.0
  0
VERTEX
  5
153C
  8
SEET
 10
-1423.9186
 20
384.0577
 30
0.0
  0
VERTEX
  5
153D
  8
SEET
 10
-1423.3332
 20
384.0
 30
0.0
  0
VERTEX
  5
153E
  8
SEET
 10
-1421.3332
 20
384.0
 30
0.0
  0
VERTEX
  5
153F
  8
SEET
 10
-1419.3332
 20
384.0
 30
0.0
  0
VERTEX
  5
1540
  8
SEET
 10
-1418.7478
 20
384.0577
 30
0.0
  0
VERTEX
  5
1541
  8
SEET
 10
-1418.185
 20
384.2284
 30
0.0
  0
VERTEX
  5
1542
  8
SEET
 10
-1417.6663
 20
384.5057
 30
0.0
  0
VERTEX
  5
1543
  8
SEET
 10
-1417.2116
 20
384.8789
 30
0.0
  0
VERTEX
  5
1544
  8
SEET
 10
-1416.8385
 20
385.3337
 30
0.0
  0
VERTEX
  5
1545
  8
SEET
 10
-1416.5614
 20
385.8525
 30
0.0
  0
VERTEX
  5
1546
  8
SEET
 10
-1416.3907
 20
386.4154
 30
0.0
  0
VERTEX
  5
1547
  8
SEET
 10
-1416.3332
 20
387.0
 30
0.0
  0
VERTEX
  5
1548
  8
SEET
 10
-1416.3332
 20
405.0
 30
0.0
  0
VERTEX
  5
1549
  8
SEET
 10
-1416.3332
 20
423.0
 30
0.0
  0
VERTEX
  5
154A
  8
SEET
 10
-1416.3907
 20
423.5846
 30
0.0
  0
VERTEX
  5
154B
  8
SEET
 10
-1416.5614
 20
424.1475
 30
0.0
  0
VERTEX
  5
154C
  8
SEET
 10
-1416.8385
 20
424.6663
 30
0.0
  0
VERTEX
  5
154D
  8
SEET
 10
-1417.2116
 20
425.1211
 30
0.0
  0
VERTEX
  5
154E
  8
SEET
 10
-1417.6663
 20
425.4943
 30
0.0
  0
VERTEX
  5
154F
  8
SEET
 10
-1418.185
 20
425.7716
 30
0.0
  0
VERTEX
  5
1550
  8
SEET
 10
-1418.7478
 20
425.9423
 30
0.0
  0
VERTEX
  5
1551
  8
SEET
 10
-1419.3332
 20
426.0
 30
0.0
  0
VERTEX
  5
1552
  8
SEET
 10
-1421.3332
 20
426.0
 30
0.0
  0
VERTEX
  5
1553
  8
SEET
 10
-1423.3332
 20
426.0
 30
0.0
  0
VERTEX
  5
1554
  8
SEET
 10
-1423.9186
 20
425.9423
 30
0.0
  0
VERTEX
  5
1555
  8
SEET
 10
-1424.4814
 20
425.7716
 30
0.0
  0
VERTEX
  5
1556
  8
SEET
 10
-1425.0001
 20
425.4943
 30
0.0
  0
VERTEX
  5
1557
  8
SEET
 10
-1425.4548
 20
425.1211
 30
0.0
  0
VERTEX
  5
1558
  8
SEET
 10
-1425.8279
 20
424.6663
 30
0.0
  0
VERTEX
  5
1559
  8
SEET
 10
-1426.105
 20
424.1475
 30
0.0
  0
VERTEX
  5
155A
  8
SEET
 10
-1426.2757
 20
423.5846
 30
0.0
  0
VERTEX
  5
155B
  8
SEET
 10
-1426.3332
 20
423.0
 30
0.0
  0
VERTEX
  5
155C
  8
SEET
 10
-1426.3332
 20
405.0
 30
0.0
  0
SEQEND
  5
155D
  8
SEET
  0
POLYLINE
  5
53A
  8
SEET
 66
     1
 10
0.0
 20
0.0
 30
0.0
 70
     1
  0
VERTEX
  5
155E
  8
SEET
 10
-1293.3332
 20
385.0
 30
0.0
  0
VERTEX
  5
155F
  8
SEET
 10
-1296.5433
 20
383.4714
 30
0.0
  0
VERTEX
  5
1560
  8
SEET
 10
-1297.0507
 20
383.2468
 30
0.0
  0
VERTEX
  5
1561
  8
SEET
 10
-1297.5704
 20
383.0505
 30
0.0
  0
VERTEX
  5
1562
  8
SEET
 10
-1298.1002
 20
382.8834
 30
0.0
  0
VERTEX
  5
1563
  8
SEET
 10
-1298.6384
 20
382.7459
 30
0.0
  0
VERTEX
  5
1564
  8
SEET
 10
-1299.1834
 20
382.6386
 30
0.0
  0
VERTEX
  5
1565
  8
SEET
 10
-1299.7337
 20
382.5617
 30
0.0
  0
VERTEX
  5
1566
  8
SEET
 10
-1300.2873
 20
382.5154
 30
0.0
  0
VERTEX
  5
1567
  8
SEET
 10
-1300.8426
 20
382.5
 30
0.0
  0
VERTEX
  5
1568
  8
SEET
 10
-1318.3332
 20
382.5
 30
0.0
  0
VERTEX
  5
1569
  8
SEET
 10
-1335.8238
 20
382.5
 30
0.0
  0
VERTEX
  5
156A
  8
SEET
 10
-1336.3791
 20
382.5154
 30
0.0
  0
VERTEX
  5
156B
  8
SEET
 10
-1336.9327
 20
382.5617
 30
0.0
  0
VERTEX
  5
156C
  8
SEET
 10
-1337.483
 20
382.6386
 30
0.0
  0
VERTEX
  5
156D
  8
SEET
 10
-1338.028
 20
382.7459
 30
0.0
  0
VERTEX
  5
156E
  8
SEET
 10
-1338.5662
 20
382.8834
 30
0.0
  0
VERTEX
  5
156F
  8
SEET
 10
-1339.096
 20
383.0505
 30
0.0
  0
VERTEX
  5
1570
  8
SEET
 10
-1339.6158
 20
383.2469
 30
0.0
  0
VERTEX
  5
1571
  8
SEET
 10
-1340.1231
 20
383.4714
 30
0.0
  0
VERTEX
  5
1572
  8
SEET
 10
-1343.3332
 20
385.0
 30
0.0
  0
VERTEX
  5
1573
  8
SEET
 10
-1343.3332
 20
425.0
 30
0.0
  0
VERTEX
  5
1574
  8
SEET
 10
-1340.1231
 20
426.5286
 30
0.0
  0
VERTEX
  5
1575
  8
SEET
 10
-1339.6158
 20
426.7531
 30
0.0
  0
VERTEX
  5
1576
  8
SEET
 10
-1339.096
 20
426.9495
 30
0.0
  0
VERTEX
  5
1577
  8
SEET
 10
-1338.5662
 20
427.1166
 30
0.0
  0
VERTEX
  5
1578
  8
SEET
 10
-1338.028
 20
427.2541
 30
0.0
  0
VERTEX
  5
1579
  8
SEET
 10
-1337.483
 20
427.3614
 30
0.0
  0
VERTEX
  5
157A
  8
SEET
 10
-1336.9327
 20
427.4383
 30
0.0
  0
VERTEX
  5
157B
  8
SEET
 10
-1336.3791
 20
427.4846
 30
0.0
  0
VERTEX
  5
157C
  8
SEET
 10
-1335.8238
 20
427.5
 30
0.0
  0
VERTEX
  5
157D
  8
SEET
 10
-1332.8332
 20
427.5
 30
0.0
  0
VERTEX
  5
157E
  8
SEET
 10
-1332.8332
 20
457.5
 30
0.0
  0
VERTEX
  5
157F
  8
SEET
 10
-1303.8332
 20
457.5
 30
0.0
  0
VERTEX
  5
1580
  8
SEET
 10
-1303.8332
 20
427.5
 30
0.0
  0
VERTEX
  5
1581
  8
SEET
 10
-1300.8426
 20
427.5
 30
0.0
  0
VERTEX
  5
1582
  8
SEET
 10
-1300.2873
 20
427.4846
 30
0.0
  0
VERTEX
  5
1583
  8
SEET
 10
-1299.7337
 20
427.4383
 30
0.0
  0
VERTEX
  5
1584
  8
SEET
 10
-1299.1836
 20
427.3614
 30
0.0
  0
VERTEX
  5
1585
  8
SEET
 10
-1298.6384
 20
427.2541
 30
0.0
  0
VERTEX
  5
1586
  8
SEET
 10
-1298.1002
 20
427.1166
 30
0.0
  0
VERTEX
  5
1587
  8
SEET
 10
-1297.5704
 20
426.9495
 30
0.0
  0
VERTEX
  5
1588
  8
SEET
 10
-1297.0507
 20
426.7532
 30
0.0
  0
VERTEX
  5
1589
  8
SEET
 10
-1296.5433
 20
426.5286
 30
0.0
  0
VERTEX
  5
158A
  8
SEET
 10
-1293.3332
 20
425.0
 30
0.0
  0
VERTEX
  5
158B
  8
SEET
 10
-1293.3332
 20
385.0
 30
0.0
  0
SEQEND
  5
158C
  8
SEET
  0
ARC
  5
56A
  8
SEET
 10
-1318.8332
 20
459.5
 30
0.0
 40
35.0322
 50
254.580508
 51
286.974487
  0
LINE
  5
56B
  8
SEET
 10
-774.8332
 20
888.5
 30
0.0
 11
-774.8332
 21
922.0
 31
0.0
  0
POLYLINE
  5
56C
  8
SEET
 66
     1
 10
0.0
 20
0.0
 30
0.0
 70
     1
  0
VERTEX
  5
158D
  8
SEET
 10
-1426.3332
 20
891.5
 30
0.0
  0
VERTEX
  5
158E
  8
SEET
 10
-1463.3332
 20
891.5
 30
0.0
  0
VERTEX
  5
158F
  8
SEET
 10
-1464.3088
 20
891.5961
 30
0.0
  0
VERTEX
  5
1590
  8
SEET
 10
-1465.2469
 20
891.8807
 30
0.0
  0
VERTEX
  5
1591
  8
SEET
 10
-1466.1114
 20
892.3429
 30
0.0
  0
VERTEX
  5
1592
  8
SEET
 10
-1466.8692
 20
892.9649
 30
0.0
  0
VERTEX
  5
1593
  8
SEET
 10
-1467.491
 20
893.7228
 30
0.0
  0
VERTEX
  5
1594
  8
SEET
 10
-1467.9529
 20
894.5874
 30
0.0
  0
VERTEX
  5
1595
  8
SEET
 10
-1468.2373
 20
895.5255
 30
0.0
  0
VERTEX
  5
1596
  8
SEET
 10
-1468.3332
 20
896.5
 30
0.0
  0
VERTEX
  5
1597
  8
SEET
 10
-1468.3332
 20
905.0
 30
0.0
  0
VERTEX
  5
1598
  8
SEET
 10
-1468.3332
 20
913.5
 30
0.0
  0
VERTEX
  5
1599
  8
SEET
 10
-1468.2373
 20
914.4743
 30
0.0
  0
VERTEX
  5
159A
  8
SEET
 10
-1467.9529
 20
915.4126
 30
0.0
  0
VERTEX
  5
159B
  8
SEET
 10
-1467.491
 20
916.2772
 30
0.0
  0
VERTEX
  5
159C
  8
SEET
 10
-1466.8692
 20
917.0351
 30
0.0
  0
VERTEX
  5
159D
  8
SEET
 10
-1466.1114
 20
917.6571
 30
0.0
  0
VERTEX
  5
159E
  8
SEET
 10
-1465.2469
 20
918.1193
 30
0.0
  0
VERTEX
  5
159F
  8
SEET
 10
-1464.3088
 20
918.4039
 30
0.0
  0
VERTEX
  5
15A0
  8
SEET
 10
-1463.3332
 20
918.5
 30
0.0
  0
VERTEX
  5
15A1
  8
SEET
 10
-1426.3332
 20
918.5
 30
0.0
  0
VERTEX
  5
15A2
  8
SEET
 10
-1426.3332
 20
891.5
 30
0.0
  0
SEQEND
  5
15A3
  8
SEET
  0
POLYLINE
  5
584
  8
SEET
 66
     1
 10
0.0
 20
0.0
 30
0.0
 70
     1
  0
VERTEX
  5
15A4
  8
SEET
 10
-1426.3332
 20
905.0
 30
0.0
  0
VERTEX
  5
15A5
  8
SEET
 10
-1426.3332
 20
887.0
 30
0.0
  0
VERTEX
  5
15A6
  8
SEET
 10
-1426.2757
 20
886.4153
 30
0.0
  0
VERTEX
  5
15A7
  8
SEET
 10
-1426.105
 20
885.8525
 30
0.0
  0
VERTEX
  5
15A8
  8
SEET
 10
-1425.8279
 20
885.3337
 30
0.0
  0
VERTEX
  5
15A9
  8
SEET
 10
-1425.4548
 20
884.8789
 30
0.0
  0
VERTEX
  5
15AA
  8
SEET
 10
-1425.0001
 20
884.5057
 30
0.0
  0
VERTEX
  5
15AB
  8
SEET
 10
-1424.4814
 20
884.2284
 30
0.0
  0
VERTEX
  5
15AC
  8
SEET
 10
-1423.9186
 20
884.0577
 30
0.0
  0
VERTEX
  5
15AD
  8
SEET
 10
-1423.3332
 20
884.0
 30
0.0
  0
VERTEX
  5
15AE
  8
SEET
 10
-1421.3332
 20
884.0
 30
0.0
  0
VERTEX
  5
15AF
  8
SEET
 10
-1419.3332
 20
884.0
 30
0.0
  0
VERTEX
  5
15B0
  8
SEET
 10
-1418.7478
 20
884.0577
 30
0.0
  0
VERTEX
  5
15B1
  8
SEET
 10
-1418.185
 20
884.2284
 30
0.0
  0
VERTEX
  5
15B2
  8
SEET
 10
-1417.6663
 20
884.5057
 30
0.0
  0
VERTEX
  5
15B3
  8
SEET
 10
-1417.2116
 20
884.8789
 30
0.0
  0
VERTEX
  5
15B4
  8
SEET
 10
-1416.8385
 20
885.3337
 30
0.0
  0
VERTEX
  5
15B5
  8
SEET
 10
-1416.5614
 20
885.8525
 30
0.0
  0
VERTEX
  5
15B6
  8
SEET
 10
-1416.3907
 20
886.4154
 30
0.0
  0
VERTEX
  5
15B7
  8
SEET
 10
-1416.3332
 20
887.0
 30
0.0
  0
VERTEX
  5
15B8
  8
SEET
 10
-1416.3332
 20
905.0
 30
0.0
  0
VERTEX
  5
15B9
  8
SEET
 10
-1416.3332
 20
923.0
 30
0.0
  0
VERTEX
  5
15BA
  8
SEET
 10
-1416.3907
 20
923.5846
 30
0.0
  0
VERTEX
  5
15BB
  8
SEET
 10
-1416.5614
 20
924.1475
 30
0.0
  0
VERTEX
  5
15BC
  8
SEET
 10
-1416.8385
 20
924.6663
 30
0.0
  0
VERTEX
  5
15BD
  8
SEET
 10
-1417.2116
 20
925.1211
 30
0.0
  0
VERTEX
  5
15BE
  8
SEET
 10
-1417.6663
 20
925.4943
 30
0.0
  0
VERTEX
  5
15BF
  8
SEET
 10
-1418.185
 20
925.7716
 30
0.0
  0
VERTEX
  5
15C0
  8
SEET
 10
-1418.7478
 20
925.9423
 30
0.0
  0
VERTEX
  5
15C1
  8
SEET
 10
-1419.3332
 20
926.0
 30
0.0
  0
VERTEX
  5
15C2
  8
SEET
 10
-1421.3332
 20
926.0
 30
0.0
  0
VERTEX
  5
15C3
  8
SEET
 10
-1423.3332
 20
926.0
 30
0.0
  0
VERTEX
  5
15C4
  8
SEET
 10
-1423.9186
 20
925.9423
 30
0.0
  0
VERTEX
  5
15C5
  8
SEET
 10
-1424.4814
 20
925.7716
 30
0.0
  0
VERTEX
  5
15C6
  8
SEET
 10
-1425.0001
 20
925.4943
 30
0.0
  0
VERTEX
  5
15C7
  8
SEET
 10
-1425.4548
 20
925.1211
 30
0.0
  0
VERTEX
  5
15C8
  8
SEET
 10
-1425.8279
 20
924.6663
 30
0.0
  0
VERTEX
  5
15C9
  8
SEET
 10
-1426.105
 20
924.1475
 30
0.0
  0
VERTEX
  5
15CA
  8
SEET
 10
-1426.2757
 20
923.5846
 30
0.0
  0
VERTEX
  5
15CB
  8
SEET
 10
-1426.3332
 20
923.0
 30
0.0
  0
VERTEX
  5
15CC
  8
SEET
 10
-1426.3332
 20
905.0
 30
0.0
  0
SEQEND
  5
15CD
  8
SEET
  0
POLYLINE
  5
5AF
  8
SEET
 66
     1
 10
0.0
 20
0.0
 30
0.0
 70
     1
  0
VERTEX
  5
15CE
  8
SEET
 10
-1293.3332
 20
925.0
 30
0.0
  0
VERTEX
  5
15CF
  8
SEET
 10
-1296.5433
 20
926.5286
 30
0.0
  0
VERTEX
  5
15D0
  8
SEET
 10
-1297.0507
 20
926.7532
 30
0.0
  0
VERTEX
  5
15D1
  8
SEET
 10
-1297.5704
 20
926.9495
 30
0.0
  0
VERTEX
  5
15D2
  8
SEET
 10
-1298.1002
 20
927.1166
 30
0.0
  0
VERTEX
  5
15D3
  8
SEET
 10
-1298.6384
 20
927.2541
 30
0.0
  0
VERTEX
  5
15D4
  8
SEET
 10
-1299.1836
 20
927.3614
 30
0.0
  0
VERTEX
  5
15D5
  8
SEET
 10
-1299.7337
 20
927.4383
 30
0.0
  0
VERTEX
  5
15D6
  8
SEET
 10
-1300.2873
 20
927.4846
 30
0.0
  0
VERTEX
  5
15D7
  8
SEET
 10
-1300.8426
 20
927.5
 30
0.0
  0
VERTEX
  5
15D8
  8
SEET
 10
-1318.3332
 20
927.5
 30
0.0
  0
VERTEX
  5
15D9
  8
SEET
 10
-1335.8238
 20
927.5
 30
0.0
  0
VERTEX
  5
15DA
  8
SEET
 10
-1336.3791
 20
927.4846
 30
0.0
  0
VERTEX
  5
15DB
  8
SEET
 10
-1336.9327
 20
927.4383
 30
0.0
  0
VERTEX
  5
15DC
  8
SEET
 10
-1337.483
 20
927.3614
 30
0.0
  0
VERTEX
  5
15DD
  8
SEET
 10
-1338.028
 20
927.2541
 30
0.0
  0
VERTEX
  5
15DE
  8
SEET
 10
-1338.5662
 20
927.1166
 30
0.0
  0
VERTEX
  5
15DF
  8
SEET
 10
-1339.096
 20
926.9495
 30
0.0
  0
VERTEX
  5
15E0
  8
SEET
 10
-1339.6158
 20
926.7531
 30
0.0
  0
VERTEX
  5
15E1
  8
SEET
 10
-1340.1231
 20
926.5286
 30
0.0
  0
VERTEX
  5
15E2
  8
SEET
 10
-1343.3332
 20
925.0
 30
0.0
  0
VERTEX
  5
15E3
  8
SEET
 10
-1343.3332
 20
885.0
 30
0.0
  0
VERTEX
  5
15E4
  8
SEET
 10
-1340.1231
 20
883.4714
 30
0.0
  0
VERTEX
  5
15E5
  8
SEET
 10
-1339.6158
 20
883.2469
 30
0.0
  0
VERTEX
  5
15E6
  8
SEET
 10
-1339.096
 20
883.0505
 30
0.0
  0
VERTEX
  5
15E7
  8
SEET
 10
-1338.5662
 20
882.8834
 30
0.0
  0
VERTEX
  5
15E8
  8
SEET
 10
-1338.028
 20
882.7459
 30
0.0
  0
VERTEX
  5
15E9
  8
SEET
 10
-1337.483
 20
882.6386
 30
0.0
  0
VERTEX
  5
15EA
  8
SEET
 10
-1336.9327
 20
882.5617
 30
0.0
  0
VERTEX
  5
15EB
  8
SEET
 10
-1336.3791
 20
882.5154
 30
0.0
  0
VERTEX
  5
15EC
  8
SEET
 10
-1335.8238
 20
882.5
 30
0.0
  0
VERTEX
  5
15ED
  8
SEET
 10
-1332.8332
 20
882.5
 30
0.0
  0
VERTEX
  5
15EE
  8
SEET
 10
-1332.8332
 20
852.5
 30
0.0
  0
VERTEX
  5
15EF
  8
SEET
 10
-1303.8332
 20
852.5
 30
0.0
  0
VERTEX
  5
15F0
  8
SEET
 10
-1303.8332
 20
882.5
 30
0.0
  0
VERTEX
  5
15F1
  8
SEET
 10
-1300.8426
 20
882.5
 30
0.0
  0
VERTEX
  5
15F2
  8
SEET
 10
-1300.2873
 20
882.5154
 30
0.0
  0
VERTEX
  5
15F3
  8
SEET
 10
-1299.7337
 20
882.5617
 30
0.0
  0
VERTEX
  5
15F4
  8
SEET
 10
-1299.1834
 20
882.6386
 30
0.0
  0
VERTEX
  5
15F5
  8
SEET
 10
-1298.6384
 20
882.7459
 30
0.0
  0
VERTEX
  5
15F6
  8
SEET
 10
-1298.1002
 20
882.8834
 30
0.0
  0
VERTEX
  5
15F7
  8
SEET
 10
-1297.5704
 20
883.0505
 30
0.0
  0
VERTEX
  5
15F8
  8
SEET
 10
-1297.0507
 20
883.2468
 30
0.0
  0
VERTEX
  5
15F9
  8
SEET
 10
-1296.5433
 20
883.4714
 30
0.0
  0
VERTEX
  5
15FA
  8
SEET
 10
-1293.3332
 20
885.0
 30
0.0
  0
VERTEX
  5
15FB
  8
SEET
 10
-1293.3332
 20
925.0
 30
0.0
  0
SEQEND
  5
15FC
  8
SEET
  0
ARC
  5
5DF
  8
SEET
 10
-1318.8332
 20
850.5
 30
0.0
 40
35.0322
 50
73.025513
 51
105.419492
  0
LINE
  5
5E0
  8
SEET
  6
MCDASH6
 10
-1318.3332
 20
922.125
 30
0.0
 11
-1318.3332
 21
392.125
 31
0.0
  0
LINE
  5
5E1
  8
SEET
  6
MCDASH6
 10
-658.3332
 20
905.0
 30
0.0
 11
-1543.3332
 21
905.0
 31
0.0
  0
LINE
  5
5E2
  8
SEET
  6
MCDASH6
 10
-658.3332
 20
405.0
 30
0.0
 11
-1543.3332
 21
405.0
 31
0.0
  0
LINE
  5
5E3
  8
SEET
 10
-573.3332
 20
770.0
 30
0.0
 11
-683.3332
 21
770.0
 31
0.0
  0
POLYLINE
  5
5E4
  8
SEET
 66
     1
 10
0.0
 20
0.0
 30
0.0
 70
     1
  0
VERTEX
  5
15FD
  8
SEET
 10
578.6668
 20
495.0
 30
0.0
  0
VERTEX
  5
15FE
  8
SEET
 10
611.6668
 20
495.0
 30
0.0
  0
VERTEX
  5
15FF
  8
SEET
 10
649.7152
 20
491.252
 30
0.0
  0
VERTEX
  5
1600
  8
SEET
 10
686.3013
 20
480.1519
 30
0.0
  0
VERTEX
  5
1601
  8
SEET
 10
720.0181
 20
462.1265
 30
0.0
  0
VERTEX
  5
1602
  8
SEET
 10
749.5691
 20
437.8694
 30
0.0
  0
VERTEX
  5
1603
  8
SEET
 10
773.8197
 20
408.3118
 30
0.0
  0
VERTEX
  5
1604
  8
SEET
 10
791.8369
 20
374.5905
 30
0.0
  0
VERTEX
  5
1605
  8
SEET
 10
802.928
 20
338.0018
 30
0.0
  0
VERTEX
  5
1606
  8
SEET
 10
806.6668
 20
300.0
 30
0.0
  0
VERTEX
  5
1607
  8
SEET
 10
806.6668
 20
267.0
 30
0.0
  0
VERTEX
  5
1608
  8
SEET
 10
798.6668
 20
267.0
 30
0.0
  0
VERTEX
  5
1609
  8
SEET
 10
798.6668
 20
300.0
 30
0.0
  0
VERTEX
  5
160A
  8
SEET
 10
795.0814
 20
336.4427
 30
0.0
  0
VERTEX
  5
160B
  8
SEET
 10
784.4453
 20
371.5304
 30
0.0
  0
VERTEX
  5
160C
  8
SEET
 10
767.1673
 20
403.8682
 30
0.0
  0
VERTEX
  5
160D
  8
SEET
 10
743.9116
 20
432.2132
 30
0.0
  0
VERTEX
  5
160E
  8
SEET
 10
715.573
 20
455.4751
 30
0.0
  0
VERTEX
  5
160F
  8
SEET
 10
683.2394
 20
472.761
 30
0.0
  0
VERTEX
  5
1610
  8
SEET
 10
648.1543
 20
483.4057
 30
0.0
  0
VERTEX
  5
1611
  8
SEET
 10
611.6668
 20
487.0
 30
0.0
  0
VERTEX
  5
1612
  8
SEET
 10
578.6668
 20
487.0
 30
0.0
  0
VERTEX
  5
1613
  8
SEET
 10
578.6668
 20
495.0
 30
0.0
  0
SEQEND
  5
1614
  8
SEET
  0
POLYLINE
  5
5FD
  8
SEET
 66
     1
 10
0.0
 20
0.0
 30
0.0
 70
     1
  0
VERTEX
  5
1615
  8
SEET
 10
801.6668
 20
265.0
 30
0.0
  0
VERTEX
  5
1616
  8
SEET
 10
801.6668
 20
300.0
 30
0.0
  0
VERTEX
  5
1617
  8
SEET
 10
798.0239
 20
337.0274
 30
0.0
  0
VERTEX
  5
1618
  8
SEET
 10
787.2171
 20
372.678
 30
0.0
  0
VERTEX
  5
1619
  8
SEET
 10
769.662
 20
405.5345
 30
0.0
  0
VERTEX
  5
161A
  8
SEET
 10
746.0332
 20
434.3343
 30
0.0
  0
VERTEX
  5
161B
  8
SEET
 10
717.2399
 20
457.9694
 30
0.0
  0
VERTEX
  5
161C
  8
SEET
 10
684.3876
 20
475.5326
 30
0.0
  0
VERTEX
  5
161D
  8
SEET
 10
648.7396
 20
486.3481
 30
0.0
  0
VERTEX
  5
161E
  8
SEET
 10
611.6668
 20
490.0
 30
0.0
  0
VERTEX
  5
161F
  8
SEET
 10
576.6668
 20
490.0
 30
0.0
  0
VERTEX
  5
1620
  8
SEET
 10
576.6668
 20
290.0
 30
0.0
  0
VERTEX
  5
1621
  8
SEET
 10
601.6668
 20
265.0
 30
0.0
  0
VERTEX
  5
1622
  8
SEET
 10
801.6668
 20
265.0
 30
0.0
  0
SEQEND
  5
1623
  8
SEET
  0
LINE
  5
60D
  8
SEET
 10
806.6668
 20
265.0
 30
0.0
 11
806.6668
 21
87.0
 31
0.0
  0
LINE
  5
60E
  8
SEET
 10
398.6668
 20
495.0
 30
0.0
 11
576.6668
 21
495.0
 31
0.0
  0
LINE
  5
60F
  8
SEET
 10
912.9902
 20
606.3179
 30
0.0
 11
918.647
 21
600.661
 31
0.0
  0
POLYLINE
  5
610
  8
SEET
 66
     1
 10
0.0
 20
0.0
 30
0.0
  0
VERTEX
  5
1624
  8
SEET
 10
672.4823
 20
598.5664
 30
0.0
  0
VERTEX
  5
1625
  8
SEET
 10
670.0173
 20
596.5429
 30
0.0
  0
VERTEX
  5
1626
  8
SEET
 10
667.53
 20
593.5113
 30
0.0
  0
VERTEX
  5
1627
  8
SEET
 10
665.6821
 20
590.0527
 30
0.0
  0
VERTEX
  5
1628
  8
SEET
 10
664.5446
 20
586.3
 30
0.0
  0
VERTEX
  5
1629
  8
SEET
 10
664.1611
 20
582.4073
 30
0.0
  0
VERTEX
  5
162A
  8
SEET
 10
664.5446
 20
578.5048
 30
0.0
  0
VERTEX
  5
162B
  8
SEET
 10
665.6821
 20
574.7521
 30
0.0
  0
VERTEX
  5
162C
  8
SEET
 10
665.9613
 20
574.2296
 30
0.0
  0
SEQEND
  5
162D
  8
SEET
  0
LINE
  5
61B
  8
SEET
 10
664.1611
 20
578.4024
 30
0.0
 11
664.5756
 21
578.4024
 31
0.0
  0
LINE
  5
61C
  8
SEET
 10
664.1611
 20
586.4024
 30
0.0
 11
664.5756
 21
586.4024
 31
0.0
  0
POLYLINE
  5
61D
  8
SEET
 66
     1
 10
0.0
 20
0.0
 30
0.0
  0
VERTEX
  5
162E
  8
SEET
 10
657.361
 20
586.4024
 30
0.0
  0
VERTEX
  5
162F
  8
SEET
 10
646.1611
 20
586.4024
 30
0.0
  0
VERTEX
  5
1630
  8
SEET
 10
646.1611
 20
578.4024
 30
0.0
  0
VERTEX
  5
1631
  8
SEET
 10
657.361
 20
578.4024
 30
0.0
  0
SEQEND
  5
1632
  8
SEET
  0
LINE
  5
623
  8
SEET
 10
684.0723
 20
495.0
 30
0.0
 11
710.9273
 21
595.2243
 31
0.0
  0
LINE
  5
624
  8
SEET
 10
674.2812
 20
605.28
 30
0.0
 11
644.7318
 21
495.0
 31
0.0
  0
POLYLINE
  5
625
  8
SEET
 66
     1
 10
0.0
 20
0.0
 30
0.0
  0
VERTEX
  5
1633
  8
SEET
 10
676.2577
 20
612.6564
 30
0.0
  0
VERTEX
  5
1634
  8
SEET
 10
704.9727
 20
719.8222
 30
0.0
  0
VERTEX
  5
1635
  8
SEET
 10
741.6779
 20
709.9871
 30
0.0
  0
VERTEX
  5
1636
  8
SEET
 10
712.8627
 20
602.4471
 30
0.0
  0
SEQEND
  5
1637
  8
SEET
  0
LINE
  5
62B
  8
SEET
 10
834.2585
 20
527.5863
 30
0.0
 11
912.9902
 21
606.3179
 31
0.0
  0
LINE
  5
62C
  8
SEET
 10
746.6427
 20
439.9706
 30
0.0
 11
829.187
 21
522.5148
 31
0.0
  0
LINE
  5
62D
  8
SEET
 10
834.8354
 20
516.8494
 30
0.0
 11
753.3264
 21
435.3404
 31
0.0
  0
LINE
  5
62E
  8
SEET
 10
918.647
 20
600.661
 30
0.0
 11
839.9072
 21
521.9212
 31
0.0
  0
LINE
  5
62F
  8
SEET
 10
918.9204
 20
385.9846
 30
0.0
 11
1025.7793
 21
414.6173
 31
0.0
  0
LINE
  5
630
  8
SEET
 10
801.2261
 20
354.4486
 30
0.0
 11
911.6498
 21
384.0365
 31
0.0
  0
LINE
  5
631
  8
SEET
 10
913.7436
 20
376.3153
 30
0.0
 11
803.8947
 21
346.8814
 31
0.0
  0
LINE
  5
632
  8
SEET
 10
1027.8497
 20
406.8899
 30
0.0
 11
921.0472
 21
378.2723
 31
0.0
  0
POLYLINE
  5
633
  8
SEET
 66
     1
 10
0.0
 20
0.0
 30
0.0
  0
VERTEX
  5
1638
  8
SEET
 10
1045.9791
 20
436.5943
 30
0.0
  0
VERTEX
  5
1639
  8
SEET
 10
1046.945
 20
436.8531
 30
0.0
  0
VERTEX
  5
163A
  8
SEET
 10
1044.3568
 20
446.5122
 30
0.0
  0
VERTEX
  5
163B
  8
SEET
 10
1043.3909
 20
446.2534
 30
0.0
  0
SEQEND
  5
163C
  8
SEET
  0
POLYLINE
  5
639
  8
SEET
 66
     1
 10
0.0
 20
0.0
 30
0.0
  0
VERTEX
  5
163D
  8
SEET
 10
1032.4563
 20
432.9707
 30
0.0
  0
VERTEX
  5
163E
  8
SEET
 10
1031.4902
 20
432.7118
 30
0.0
  0
VERTEX
  5
163F
  8
SEET
 10
1028.902
 20
442.3713
 30
0.0
  0
VERTEX
  5
1640
  8
SEET
 10
1029.868
 20
442.6301
 30
0.0
  0
SEQEND
  5
1641
  8
SEET
  0
POLYLINE
  5
63F
  8
SEET
 66
     1
 10
0.0
 20
0.0
 30
0.0
  0
VERTEX
  5
1642
  8
SEET
 10
1046.6354
 20
426.4175
 30
0.0
  0
VERTEX
  5
1643
  8
SEET
 10
1054.363
 20
428.4881
 30
0.0
  0
VERTEX
  5
1644
  8
SEET
 10
1054.9432
 20
428.5839
 30
0.0
  0
VERTEX
  5
1645
  8
SEET
 10
1055.5311
 20
428.5646
 30
0.0
  0
VERTEX
  5
1646
  8
SEET
 10
1056.1039
 20
428.431
 30
0.0
  0
VERTEX
  5
1647
  8
SEET
 10
1056.6397
 20
428.1882
 30
0.0
  0
VERTEX
  5
1648
  8
SEET
 10
1057.1177
 20
427.8456
 30
0.0
  0
VERTEX
  5
1649
  8
SEET
 10
1057.5197
 20
427.4163
 30
0.0
  0
VERTEX
  5
164A
  8
SEET
 10
1057.8303
 20
426.9167
 30
0.0
  0
VERTEX
  5
164B
  8
SEET
 10
1058.0373
 20
426.3668
 30
0.0
  0
VERTEX
  5
164C
  8
SEET
 10
1061.6608
 20
412.844
 30
0.0
  0
VERTEX
  5
164D
  8
SEET
 10
1061.7566
 20
412.263
 30
0.0
  0
VERTEX
  5
164E
  8
SEET
 10
1061.7374
 20
411.6766
 30
0.0
  0
VERTEX
  5
164F
  8
SEET
 10
1061.604
 20
411.1038
 30
0.0
  0
VERTEX
  5
1650
  8
SEET
 10
1061.3613
 20
410.568
 30
0.0
  0
VERTEX
  5
1651
  8
SEET
 10
1061.0188
 20
410.0898
 30
0.0
  0
VERTEX
  5
1652
  8
SEET
 10
1060.5895
 20
409.6877
 30
0.0
  0
VERTEX
  5
1653
  8
SEET
 10
1060.0901
 20
409.377
 30
0.0
  0
VERTEX
  5
1654
  8
SEET
 10
1059.5395
 20
409.1697
 30
0.0
  0
VERTEX
  5
1655
  8
SEET
 10
1042.1528
 20
404.5109
 30
0.0
  0
VERTEX
  5
1656
  8
SEET
 10
1041.5725
 20
404.4151
 30
0.0
  0
VERTEX
  5
1657
  8
SEET
 10
1040.9847
 20
404.4344
 30
0.0
  0
VERTEX
  5
1658
  8
SEET
 10
1040.4118
 20
404.568
 30
0.0
  0
VERTEX
  5
1659
  8
SEET
 10
1039.8761
 20
404.8107
 30
0.0
  0
VERTEX
  5
165A
  8
SEET
 10
1039.398
 20
405.1534
 30
0.0
  0
VERTEX
  5
165B
  8
SEET
 10
1038.996
 20
405.5828
 30
0.0
  0
VERTEX
  5
165C
  8
SEET
 10
1038.6855
 20
406.0823
 30
0.0
  0
VERTEX
  5
165D
  8
SEET
 10
1038.4785
 20
406.6322
 30
0.0
  0
VERTEX
  5
165E
  8
SEET
 10
1034.855
 20
420.1551
 30
0.0
  0
VERTEX
  5
165F
  8
SEET
 10
1034.7592
 20
420.7361
 30
0.0
  0
VERTEX
  5
1660
  8
SEET
 10
1034.7784
 20
421.3225
 30
0.0
  0
VERTEX
  5
1661
  8
SEET
 10
1034.9118
 20
421.8953
 30
0.0
  0
VERTEX
  5
1662
  8
SEET
 10
1035.1545
 20
422.4311
 30
0.0
  0
VERTEX
  5
1663
  8
SEET
 10
1035.497
 20
422.9092
 30
0.0
  0
VERTEX
  5
1664
  8
SEET
 10
1035.9262
 20
423.3114
 30
0.0
  0
VERTEX
  5
1665
  8
SEET
 10
1036.4256
 20
423.622
 30
0.0
  0
VERTEX
  5
1666
  8
SEET
 10
1036.9762
 20
423.8293
 30
0.0
  0
SEQEND
  5
1667
  8
SEET
  0
POLYLINE
  5
666
  8
SEET
 66
     1
 10
0.0
 20
0.0
 30
0.0
  0
VERTEX
  5
1668
  8
SEET
 10
1035.6597
 20
417.1518
 30
0.0
  0
VERTEX
  5
1669
  8
SEET
 10
1035.6315
 20
417.2572
 30
0.0
  0
VERTEX
  5
166A
  8
SEET
 10
1035.6315
 20
417.2572
 30
0.0
  0
SEQEND
  5
166B
  8
SEET
  0
POLYLINE
  5
66B
  8
SEET
 66
     1
 10
0.0
 20
0.0
 30
0.0
  0
VERTEX
  5
166C
  8
SEET
 10
1060.8844
 20
415.7416
 30
0.0
  0
VERTEX
  5
166D
  8
SEET
 10
1061.8502
 20
416.0004
 30
0.0
  0
VERTEX
  5
166E
  8
SEET
 10
1059.7797
 20
423.7278
 30
0.0
  0
VERTEX
  5
166F
  8
SEET
 10
1058.8138
 20
423.469
 30
0.0
  0
SEQEND
  5
1670
  8
SEET
  0
POLYLINE
  5
671
  8
SEET
 66
     1
 10
0.0
 20
0.0
 30
0.0
  0
VERTEX
  5
1671
  8
SEET
 10
936.8414
 20
630.8315
 30
0.0
  0
VERTEX
  5
1672
  8
SEET
 10
937.5485
 20
631.5386
 30
0.0
  0
VERTEX
  5
1673
  8
SEET
 10
943.2053
 20
625.8817
 30
0.0
  0
VERTEX
  5
1674
  8
SEET
 10
942.4982
 20
625.1746
 30
0.0
  0
SEQEND
  5
1675
  8
SEET
  0
POLYLINE
  5
677
  8
SEET
 66
     1
 10
0.0
 20
0.0
 30
0.0
  0
VERTEX
  5
1676
  8
SEET
 10
919.8709
 20
613.8608
 30
0.0
  0
VERTEX
  5
1677
  8
SEET
 10
919.8709
 20
613.8608
 30
0.0
  0
VERTEX
  5
1678
  8
SEET
 10
921.5994
 20
612.1324
 30
0.0
  0
SEQEND
  5
1679
  8
SEET
  0
POLYLINE
  5
67C
  8
SEET
 66
     1
 10
0.0
 20
0.0
 30
0.0
 70
     1
  0
VERTEX
  5
167A
  8
SEET
 10
921.6166
 20
633.3291
 30
0.0
  0
VERTEX
  5
167B
  8
SEET
 10
910.303
 20
644.6428
 30
0.0
  0
VERTEX
  5
167C
  8
SEET
 10
908.8888
 20
643.2286
 30
0.0
  0
VERTEX
  5
167D
  8
SEET
 10
920.2025
 20
631.9149
 30
0.0
  0
SEQEND
  5
167E
  8
SEET
  0
POLYLINE
  5
682
  8
SEET
 66
     1
 10
0.0
 20
0.0
 30
0.0
  0
VERTEX
  5
167F
  8
SEET
 10
919.4954
 20
635.4504
 30
0.0
  0
VERTEX
  5
1680
  8
SEET
 10
920.2025
 20
636.1575
 30
0.0
  0
VERTEX
  5
1681
  8
SEET
 10
913.1314
 20
643.2285
 30
0.0
  0
VERTEX
  5
1682
  8
SEET
 10
912.4243
 20
642.5214
 30
0.0
  0
SEQEND
  5
1683
  8
SEET
  0
POLYLINE
  5
688
  8
SEET
 66
     1
 10
0.0
 20
0.0
 30
0.0
  0
VERTEX
  5
1684
  8
SEET
 10
902.5248
 20
632.622
 30
0.0
  0
VERTEX
  5
1685
  8
SEET
 10
901.8177
 20
631.9149
 30
0.0
  0
VERTEX
  5
1686
  8
SEET
 10
908.8888
 20
624.8437
 30
0.0
  0
VERTEX
  5
1687
  8
SEET
 10
909.596
 20
625.5509
 30
0.0
  0
SEQEND
  5
1688
  8
SEET
  0
POLYLINE
  5
68E
  8
SEET
 66
     1
 10
0.0
 20
0.0
 30
0.0
  0
VERTEX
  5
1689
  8
SEET
 10
924.8211
 20
627.2963
 30
0.0
  0
VERTEX
  5
168A
  8
SEET
 10
930.4775
 20
632.9527
 30
0.0
  0
VERTEX
  5
168B
  8
SEET
 10
930.9319
 20
633.3257
 30
0.0
  0
VERTEX
  5
168C
  8
SEET
 10
931.4506
 20
633.603
 30
0.0
  0
VERTEX
  5
168D
  8
SEET
 10
932.0134
 20
633.7737
 30
0.0
  0
VERTEX
  5
168E
  8
SEET
 10
932.5988
 20
633.8314
 30
0.0
  0
VERTEX
  5
168F
  8
SEET
 10
933.1842
 20
633.7737
 30
0.0
  0
VERTEX
  5
1690
  8
SEET
 10
933.747
 20
633.603
 30
0.0
  0
VERTEX
  5
1691
  8
SEET
 10
934.2657
 20
633.3257
 30
0.0
  0
VERTEX
  5
1692
  8
SEET
 10
934.7201
 20
632.9527
 30
0.0
  0
VERTEX
  5
1693
  8
SEET
 10
944.6195
 20
623.0534
 30
0.0
  0
VERTEX
  5
1694
  8
SEET
 10
944.9929
 20
622.5984
 30
0.0
  0
VERTEX
  5
1695
  8
SEET
 10
945.27
 20
622.0796
 30
0.0
  0
VERTEX
  5
1696
  8
SEET
 10
945.4407
 20
621.5167
 30
0.0
  0
VERTEX
  5
1697
  8
SEET
 10
945.4982
 20
620.9328
 30
0.0
  0
VERTEX
  5
1698
  8
SEET
 10
945.4407
 20
620.3475
 30
0.0
  0
VERTEX
  5
1699
  8
SEET
 10
945.27
 20
619.7846
 30
0.0
  0
VERTEX
  5
169A
  8
SEET
 10
944.9929
 20
619.2658
 30
0.0
  0
VERTEX
  5
169B
  8
SEET
 10
944.6195
 20
618.8108
 30
0.0
  0
VERTEX
  5
169C
  8
SEET
 10
931.8916
 20
606.0827
 30
0.0
  0
VERTEX
  5
169D
  8
SEET
 10
931.4372
 20
605.7097
 30
0.0
  0
VERTEX
  5
169E
  8
SEET
 10
930.9185
 20
605.4324
 30
0.0
  0
VERTEX
  5
169F
  8
SEET
 10
930.3557
 20
605.2617
 30
0.0
  0
VERTEX
  5
16A0
  8
SEET
 10
929.7703
 20
605.204
 30
0.0
  0
VERTEX
  5
16A1
  8
SEET
 10
929.1849
 20
605.2617
 30
0.0
  0
VERTEX
  5
16A2
  8
SEET
 10
928.6221
 20
605.4324
 30
0.0
  0
VERTEX
  5
16A3
  8
SEET
 10
928.1034
 20
605.7097
 30
0.0
  0
VERTEX
  5
16A4
  8
SEET
 10
927.649
 20
606.0827
 30
0.0
  0
VERTEX
  5
16A5
  8
SEET
 10
917.7496
 20
615.9822
 30
0.0
  0
VERTEX
  5
16A6
  8
SEET
 10
917.3762
 20
616.4372
 30
0.0
  0
VERTEX
  5
16A7
  8
SEET
 10
917.0991
 20
616.9559
 30
0.0
  0
VERTEX
  5
16A8
  8
SEET
 10
916.9284
 20
617.5189
 30
0.0
  0
VERTEX
  5
16A9
  8
SEET
 10
916.8709
 20
618.1042
 30
0.0
  0
VERTEX
  5
16AA
  8
SEET
 10
916.9284
 20
618.6881
 30
0.0
  0
VERTEX
  5
16AB
  8
SEET
 10
917.0991
 20
619.2511
 30
0.0
  0
VERTEX
  5
16AC
  8
SEET
 10
917.3762
 20
619.7698
 30
0.0
  0
VERTEX
  5
16AD
  8
SEET
 10
917.7496
 20
620.2248
 30
0.0
  0
VERTEX
  5
16AE
  8
SEET
 10
917.75
 20
620.2252
 30
0.0
  0
SEQEND
  5
16AF
  8
SEET
  0
POLYLINE
  5
6B6
  8
SEET
 66
     1
 10
0.0
 20
0.0
 30
0.0
  0
VERTEX
  5
16B0
  8
SEET
 10
728.313
 20
748.9745
 30
0.0
  0
VERTEX
  5
16B1
  8
SEET
 10
728.5718
 20
749.9403
 30
0.0
  0
VERTEX
  5
16B2
  8
SEET
 10
736.2991
 20
747.8698
 30
0.0
  0
VERTEX
  5
16B3
  8
SEET
 10
736.0403
 20
746.9039
 30
0.0
  0
SEQEND
  5
16B4
  8
SEET
  0
POLYLINE
  5
6BC
  8
SEET
 66
     1
 10
0.0
 20
0.0
 30
0.0
  0
VERTEX
  5
16B5
  8
SEET
 10
722.1013
 20
725.7921
 30
0.0
  0
VERTEX
  5
16B6
  8
SEET
 10
722.1013
 20
725.792
 30
0.0
  0
VERTEX
  5
16B7
  8
SEET
 10
727.8349
 20
724.2559
 30
0.0
  0
SEQEND
  5
16B8
  8
SEET
  0
POLYLINE
  5
6C1
  8
SEET
 66
     1
 10
0.0
 20
0.0
 30
0.0
  0
VERTEX
  5
16B9
  8
SEET
 10
719.6704
 20
739.902
 30
0.0
  0
VERTEX
  5
16BA
  8
SEET
 10
721.741
 20
747.6296
 30
0.0
  0
VERTEX
  5
16BB
  8
SEET
 10
721.948
 20
748.1795
 30
0.0
  0
VERTEX
  5
16BC
  8
SEET
 10
722.2585
 20
748.679
 30
0.0
  0
VERTEX
  5
16BD
  8
SEET
 10
722.6605
 20
749.1084
 30
0.0
  0
VERTEX
  5
16BE
  8
SEET
 10
723.1386
 20
749.4511
 30
0.0
  0
VERTEX
  5
16BF
  8
SEET
 10
723.6743
 20
749.6938
 30
0.0
  0
VERTEX
  5
16C0
  8
SEET
 10
724.2472
 20
749.8274
 30
0.0
  0
VERTEX
  5
16C1
  8
SEET
 10
724.835
 20
749.8467
 30
0.0
  0
VERTEX
  5
16C2
  8
SEET
 10
725.4153
 20
749.7509
 30
0.0
  0
VERTEX
  5
16C3
  8
SEET
 10
738.9379
 20
746.1275
 30
0.0
  0
VERTEX
  5
16C4
  8
SEET
 10
739.4884
 20
745.9202
 30
0.0
  0
VERTEX
  5
16C5
  8
SEET
 10
739.9879
 20
745.6096
 30
0.0
  0
VERTEX
  5
16C6
  8
SEET
 10
740.4172
 20
745.2074
 30
0.0
  0
VERTEX
  5
16C7
  8
SEET
 10
740.7597
 20
744.7293
 30
0.0
  0
VERTEX
  5
16C8
  8
SEET
 10
741.0024
 20
744.1935
 30
0.0
  0
VERTEX
  5
16C9
  8
SEET
 10
741.1359
 20
743.6206
 30
0.0
  0
VERTEX
  5
16CA
  8
SEET
 10
741.1551
 20
743.0342
 30
0.0
  0
VERTEX
  5
16CB
  8
SEET
 10
741.0593
 20
742.4533
 30
0.0
  0
VERTEX
  5
16CC
  8
SEET
 10
736.4007
 20
725.0665
 30
0.0
  0
VERTEX
  5
16CD
  8
SEET
 10
736.1937
 20
724.5166
 30
0.0
  0
VERTEX
  5
16CE
  8
SEET
 10
735.8832
 20
724.0171
 30
0.0
  0
VERTEX
  5
16CF
  8
SEET
 10
735.4812
 20
723.5877
 30
0.0
  0
VERTEX
  5
16D0
  8
SEET
 10
735.0031
 20
723.245
 30
0.0
  0
VERTEX
  5
16D1
  8
SEET
 10
734.4674
 20
723.0023
 30
0.0
  0
VERTEX
  5
16D2
  8
SEET
 10
733.8946
 20
722.8687
 30
0.0
  0
VERTEX
  5
16D3
  8
SEET
 10
733.3067
 20
722.8494
 30
0.0
  0
VERTEX
  5
16D4
  8
SEET
 10
732.7265
 20
722.9452
 30
0.0
  0
VERTEX
  5
16D5
  8
SEET
 10
719.2035
 20
726.5686
 30
0.0
  0
VERTEX
  5
16D6
  8
SEET
 10
719.2034
 20
726.5686
 30
0.0
  0
VERTEX
  5
16D7
  8
SEET
 10
718.6528
 20
726.7759
 30
0.0
  0
VERTEX
  5
16D8
  8
SEET
 10
718.1534
 20
727.0865
 30
0.0
  0
VERTEX
  5
16D9
  8
SEET
 10
717.7242
 20
727.4886
 30
0.0
  0
VERTEX
  5
16DA
  8
SEET
 10
717.3816
 20
727.9668
 30
0.0
  0
VERTEX
  5
16DB
  8
SEET
 10
717.139
 20
728.5025
 30
0.0
  0
VERTEX
  5
16DC
  8
SEET
 10
717.0055
 20
729.0754
 30
0.0
  0
VERTEX
  5
16DD
  8
SEET
 10
716.9863
 20
729.6618
 30
0.0
  0
VERTEX
  5
16DE
  8
SEET
 10
717.0821
 20
730.2427
 30
0.0
  0
SEQEND
  5
16DF
  8
SEET
  0
POLYLINE
  5
6E9
  8
SEET
 66
     1
 10
0.0
 20
0.0
 30
0.0
  0
VERTEX
  5
16E0
  8
SEET
 10
700.8697
 20
747.0101
 30
0.0
  0
VERTEX
  5
16E1
  8
SEET
 10
701.1285
 20
747.976
 30
0.0
  0
VERTEX
  5
16E2
  8
SEET
 10
710.7878
 20
745.3878
 30
0.0
  0
VERTEX
  5
16E3
  8
SEET
 10
710.529
 20
744.4219
 30
0.0
  0
SEQEND
  5
16E4
  8
SEET
  0
POLYLINE
  5
6EF
  8
SEET
 66
     1
 10
0.0
 20
0.0
 30
0.0
  0
VERTEX
  5
16E5
  8
SEET
 10
706.9056
 20
730.899
 30
0.0
  0
VERTEX
  5
16E6
  8
SEET
 10
706.6467
 20
729.933
 30
0.0
  0
VERTEX
  5
16E7
  8
SEET
 10
696.9874
 20
732.5212
 30
0.0
  0
VERTEX
  5
16E8
  8
SEET
 10
697.2463
 20
733.4872
 30
0.0
  0
SEQEND
  5
16E9
  8
SEET
  0
POLYLINE
  5
6F5
  8
SEET
 66
     1
 10
0.0
 20
0.0
 30
0.0
  0
VERTEX
  5
16EA
  8
SEET
 10
726.6668
 20
-305.0
 30
0.0
  0
VERTEX
  5
16EB
  8
SEET
 10
1406.6668
 20
-305.0
 30
0.0
  0
VERTEX
  5
16EC
  8
SEET
 10
1406.6668
 20
-280.0
 30
0.0
  0
VERTEX
  5
16ED
  8
SEET
 10
406.6668
 20
-280.0
 30
0.0
  0
VERTEX
  5
16EE
  8
SEET
 10
406.6668
 20
-305.0
 30
0.0
  0
VERTEX
  5
16EF
  8
SEET
 10
426.6668
 20
-305.0
 30
0.0
  0
SEQEND
  5
16F0
  8
SEET
  0
POLYLINE
  5
6FD
  8
SEET
 66
     1
 10
0.0
 20
0.0
 30
0.0
  0
VERTEX
  5
16F1
  8
SEET
 10
726.6668
 20
-305.0
 30
0.0
  0
VERTEX
  5
16F2
  8
SEET
 10
1501.6668
 20
-305.0
 30
0.0
  0
VERTEX
  5
16F3
  8
SEET
 10
1501.6668
 20
-130.0
 30
0.0
  0
VERTEX
  5
16F4
  8
SEET
 10
401.6668
 20
-130.0
 30
0.0
  0
VERTEX
  5
16F5
  8
SEET
 10
401.6668
 20
-305.0
 30
0.0
  0
VERTEX
  5
16F6
  8
SEET
 10
426.6668
 20
-305.0
 30
0.0
  0
SEQEND
  5
16F7
  8
SEET
  0
POLYLINE
  5
705
  8
SEET
 66
     1
 10
0.0
 20
0.0
 30
0.0
 70
     1
  0
VERTEX
  5
16F8
  8
SEET
 10
806.6668
 20
-355.0
 30
0.0
  0
VERTEX
  5
16F9
  8
SEET
 10
726.6668
 20
-355.0
 30
0.0
  0
VERTEX
  5
16FA
  8
SEET
 10
726.6668
 20
-363.0
 30
0.0
  0
VERTEX
  5
16FB
  8
SEET
 10
806.6668
 20
-363.0
 30
0.0
  0
SEQEND
  5
16FC
  8
SEET
  0
POLYLINE
  5
70B
  8
SEET
 66
     1
 10
0.0
 20
0.0
 30
0.0
  0
VERTEX
  5
16FD
  8
SEET
 10
741.6668
 20
-363.0
 30
0.0
  0
VERTEX
  5
16FE
  8
SEET
 10
741.6668
 20
-395.0
 30
0.0
  0
VERTEX
  5
16FF
  8
SEET
 10
791.6668
 20
-395.0
 30
0.0
  0
VERTEX
  5
1700
  8
SEET
 10
791.6668
 20
-363.0
 30
0.0
  0
SEQEND
  5
1701
  8
SEET
  0
POLYLINE
  5
711
  8
SEET
 66
     1
 10
0.0
 20
0.0
 30
0.0
  0
VERTEX
  5
1702
  8
SEET
 10
741.6668
 20
-355.0
 30
0.0
  0
VERTEX
  5
1703
  8
SEET
 10
741.6668
 20
-355.0
 30
0.0
  0
VERTEX
  5
1704
  8
SEET
 10
791.6668
 20
-355.0
 30
0.0
  0
VERTEX
  5
1705
  8
SEET
 10
791.6668
 20
-355.0
 30
0.0
  0
SEQEND
  5
1706
  8
SEET
  0
LINE
  5
717
  8
SEET
 10
1292.6668
 20
-467.0
 30
0.0
 11
1292.6668
 21
-980.0
 31
0.0
  0
LINE
  5
718
  8
SEET
 10
1330.6668
 20
-980.0
 30
0.0
 11
1330.6668
 21
-467.0
 31
0.0
  0
POLYLINE
  5
719
  8
SEET
 66
     1
 10
0.0
 20
0.0
 30
0.0
  0
VERTEX
  5
1707
  8
SEET
 10
1330.6668
 20
-1030.0
 30
0.0
  0
VERTEX
  5
1708
  8
SEET
 10
1330.6668
 20
-1103.0
 30
0.0
  0
VERTEX
  5
1709
  8
SEET
 10
1292.6668
 20
-1103.0
 30
0.0
  0
VERTEX
  5
170A
  8
SEET
 10
1292.6668
 20
-1030.0
 30
0.0
  0
SEQEND
  5
170B
  8
SEET
  0
LINE
  5
71F
  8
SEET
 10
674.1668
 20
-1017.5
 30
0.0
 11
1259.1668
 21
-1017.5
 31
0.0
  0
LINE
  5
720
  8
SEET
 10
1259.1668
 20
-992.5
 30
0.0
 11
674.1668
 21
-992.5
 31
0.0
  0
POLYLINE
  5
721
  8
SEET
 66
     1
 10
0.0
 20
0.0
 30
0.0
  0
VERTEX
  5
170C
  8
SEET
 10
602.6668
 20
-1030.0
 30
0.0
  0
VERTEX
  5
170D
  8
SEET
 10
602.6668
 20
-1103.0
 30
0.0
  0
VERTEX
  5
170E
  8
SEET
 10
640.6668
 20
-1103.0
 30
0.0
  0
VERTEX
  5
170F
  8
SEET
 10
640.6668
 20
-1030.0
 30
0.0
  0
SEQEND
  5
1710
  8
SEET
  0
LINE
  5
727
  8
SEET
 10
640.6668
 20
-467.0
 30
0.0
 11
640.6668
 21
-980.0
 31
0.0
  0
LINE
  5
728
  8
SEET
 10
602.6668
 20
-980.0
 30
0.0
 11
602.6668
 21
-467.0
 31
0.0
  0
POLYLINE
  5
729
  8
SEET
 66
     1
 10
0.0
 20
0.0
 30
0.0
  0
VERTEX
  5
1711
  8
SEET
 10
-618.3332
 20
415.0
 30
0.0
  0
VERTEX
  5
1712
  8
SEET
 10
-618.3332
 20
1190.0
 30
0.0
  0
VERTEX
  5
1713
  8
SEET
 10
-443.3332
 20
1190.0
 30
0.0
  0
VERTEX
  5
1714
  8
SEET
 10
-443.3332
 20
90.0
 30
0.0
  0
VERTEX
  5
1715
  8
SEET
 10
-618.3332
 20
90.0
 30
0.0
  0
VERTEX
  5
1716
  8
SEET
 10
-618.3332
 20
115.0
 30
0.0
  0
SEQEND
  5
1717
  8
SEET
  0
POLYLINE
  5
731
  8
SEET
 66
     1
 10
0.0
 20
0.0
 30
0.0
  0
VERTEX
  5
1718
  8
SEET
 10
-643.3332
 20
265.0
 30
0.0
  0
VERTEX
  5
1719
  8
SEET
 10
-668.3332
 20
265.0
 30
0.0
  0
VERTEX
  5
171A
  8
SEET
 10
-668.3332
 20
1045.0
 30
0.0
  0
VERTEX
  5
171B
  8
SEET
 10
-593.3332
 20
1045.0
 30
0.0
  0
VERTEX
  5
171C
  8
SEET
 10
-593.3332
 20
265.0
 30
0.0
  0
VERTEX
  5
171D
  8
SEET
 10
-593.3332
 20
265.0
 30
0.0
  0
SEQEND
  5
171E
  8
SEET
  0
POLYLINE
  5
739
  8
SEET
 66
     1
 10
0.0
 20
0.0
 30
0.0
  0
VERTEX
  5
171F
  8
SEET
 10
-618.3332
 20
415.0
 30
0.0
  0
VERTEX
  5
1720
  8
SEET
 10
-618.3332
 20
1090.0
 30
0.0
  0
VERTEX
  5
1721
  8
SEET
 10
-593.3332
 20
1090.0
 30
0.0
  0
VERTEX
  5
1722
  8
SEET
 10
-593.3332
 20
90.0
 30
0.0
  0
VERTEX
  5
1723
  8
SEET
 10
-618.3332
 20
90.0
 30
0.0
  0
VERTEX
  5
1724
  8
SEET
 10
-618.3332
 20
110.0
 30
0.0
  0
SEQEND
  5
1725
  8
SEET
  0
POLYLINE
  5
741
  8
SEET
 66
     1
 10
0.0
 20
0.0
 30
0.0
 70
     1
  0
VERTEX
  5
1726
  8
SEET
 10
-668.3332
 20
955.0
 30
0.0
  0
VERTEX
  5
1727
  8
SEET
 10
-678.3332
 20
955.0
 30
0.0
  0
VERTEX
  5
1728
  8
SEET
 10
-678.3332
 20
355.0
 30
0.0
  0
VERTEX
  5
1729
  8
SEET
 10
-668.3332
 20
355.0
 30
0.0
  0
SEQEND
  5
172A
  8
SEET
  0
POLYLINE
  5
747
  8
SEET
 66
     1
 10
0.0
 20
0.0
 30
0.0
  0
VERTEX
  5
172B
  8
SEET
 10
-678.3332
 20
375.1398
 30
0.0
  0
VERTEX
  5
172C
  8
SEET
 10
-764.8332
 20
377.0
 30
0.0
  0
VERTEX
  5
172D
  8
SEET
 10
-774.8332
 20
385.0
 30
0.0
  0
VERTEX
  5
172E
  8
SEET
 10
-779.8332
 20
385.0
 30
0.0
  0
VERTEX
  5
172F
  8
SEET
 10
-779.8332
 20
425.0
 30
0.0
  0
VERTEX
  5
1730
  8
SEET
 10
-774.8332
 20
425.0
 30
0.0
  0
VERTEX
  5
1731
  8
SEET
 10
-764.3332
 20
433.0
 30
0.0
  0
VERTEX
  5
1732
  8
SEET
 10
-678.3332
 20
434.8594
 30
0.0
  0
SEQEND
  5
1733
  8
SEET
  0
LINE
  5
751
  8
SEET
 10
-779.8332
 20
386.0
 30
0.0
 11
-1293.3332
 21
386.0
 31
0.0
  0
LINE
  5
752
  8
SEET
 10
-1293.3332
 20
424.0
 30
0.0
 11
-779.8332
 21
424.0
 31
0.0
  0
POLYLINE
  5
753
  8
SEET
 66
     1
 10
0.0
 20
0.0
 30
0.0
  0
VERTEX
  5
1734
  8
SEET
 10
-1343.3332
 20
424.0
 30
0.0
  0
VERTEX
  5
1735
  8
SEET
 10
-1416.3332
 20
424.0
 30
0.0
  0
VERTEX
  5
1736
  8
SEET
 10
-1416.3332
 20
386.0
 30
0.0
  0
VERTEX
  5
1737
  8
SEET
 10
-1343.3332
 20
386.0
 30
0.0
  0
SEQEND
  5
1738
  8
SEET
  0
LINE
  5
759
  8
SEET
 10
-1305.8332
 20
852.5
 30
0.0
 11
-1305.8332
 21
457.5
 31
0.0
  0
LINE
  5
75A
  8
SEET
 10
-1330.8332
 20
457.5
 30
0.0
 11
-1330.8332
 21
852.5
 31
0.0
  0
POLYLINE
  5
75B
  8
SEET
 66
     1
 10
0.0
 20
0.0
 30
0.0
  0
VERTEX
  5
1739
  8
SEET
 10
-1343.3332
 20
924.0
 30
0.0
  0
VERTEX
  5
173A
  8
SEET
 10
-1416.3332
 20
924.0
 30
0.0
  0
VERTEX
  5
173B
  8
SEET
 10
-1416.3332
 20
886.0
 30
0.0
  0
VERTEX
  5
173C
  8
SEET
 10
-1343.3332
 20
886.0
 30
0.0
  0
SEQEND
  5
173D
  8
SEET
  0
LINE
  5
761
  8
SEET
 10
-779.8332
 20
886.0
 30
0.0
 11
-1293.3332
 21
886.0
 31
0.0
  0
LINE
  5
762
  8
SEET
 10
-1293.3332
 20
924.0
 30
0.0
 11
-779.8332
 21
924.0
 31
0.0
  0
POLYLINE
  5
763
  8
SEET
 66
     1
 10
0.0
 20
0.0
 30
0.0
  0
VERTEX
  5
173E
  8
SEET
 10
-678.3332
 20
875.1398
 30
0.0
  0
VERTEX
  5
173F
  8
SEET
 10
-764.8332
 20
877.0
 30
0.0
  0
VERTEX
  5
1740
  8
SEET
 10
-774.8332
 20
885.0
 30
0.0
  0
VERTEX
  5
1741
  8
SEET
 10
-779.8332
 20
885.0
 30
0.0
  0
VERTEX
  5
1742
  8
SEET
 10
-779.8332
 20
925.0
 30
0.0
  0
VERTEX
  5
1743
  8
SEET
 10
-774.8332
 20
925.0
 30
0.0
  0
VERTEX
  5
1744
  8
SEET
 10
-764.3332
 20
933.0
 30
0.0
  0
VERTEX
  5
1745
  8
SEET
 10
-678.3332
 20
934.8594
 30
0.0
  0
SEQEND
  5
1746
  8
SEET
  0
POLYLINE
  5
76D
  8
SEET
 66
     1
 10
0.0
 20
0.0
 30
0.0
  0
VERTEX
  5
1747
  8
SEET
 10
-668.3332
 20
830.0
 30
0.0
  0
VERTEX
  5
1748
  8
SEET
 10
-668.3332
 20
830.0
 30
0.0
  0
VERTEX
  5
1749
  8
SEET
 10
-668.3332
 20
880.0
 30
0.0
  0
VERTEX
  5
174A
  8
SEET
 10
-668.3332
 20
880.0
 30
0.0
  0
SEQEND
  5
174B
  8
SEET
  0
POLYLINE
  5
773
  8
SEET
 66
     1
 10
0.0
 20
0.0
 30
0.0
  0
VERTEX
  5
174C
  8
SEET
 10
-678.3332
 20
830.0
 30
0.0
  0
VERTEX
  5
174D
  8
SEET
 10
-708.3332
 20
830.0
 30
0.0
  0
VERTEX
  5
174E
  8
SEET
 10
-708.3332
 20
875.785
 30
0.0
  0
SEQEND
  5
174F
  8
SEET
  0
LINE
  5
778
  8
S
 10
401.6668
 20
380.0
 30
0.0
 11
401.6668
 21
-30.0
 31
0.0
  0
LINE
  5
779
  8
S
 10
701.6668
 20
80.0
 30
0.0
 11
701.6668
 21
-30.0
 31
0.0
  0
POLYLINE
  5
77A
  8
S
 66
     1
 10
0.0
 20
0.0
 30
0.0
  0
VERTEX
  5
1750
  8
S
 10
423.6655
 20
-4.1055
 30
0.0
  0
VERTEX
  5
1751
  8
S
 10
401.6668
 20
-10.0
 30
0.0
  0
VERTEX
  5
1752
  8
S
 10
423.6655
 20
-15.8945
 30
0.0
  0
SEQEND
  5
1753
  8
S
  0
POLYLINE
  5
77F
  8
S
 66
     1
 10
0.0
 20
0.0
 30
0.0
  0
VERTEX
  5
1754
  8
S
 10
679.6681
 20
-15.8945
 30
0.0
  0
VERTEX
  5
1755
  8
S
 10
701.6668
 20
-10.0
 30
0.0
  0
VERTEX
  5
1756
  8
S
 10
679.6681
 20
-4.1055
 30
0.0
  0
SEQEND
  5
1757
  8
S
  0
LINE
  5
784
  8
S
 10
401.6668
 20
-10.0
 30
0.0
 11
701.6668
 21
-10.0
 31
0.0
  0
TEXT
  5
785
  8
S
 10
521.6807
 20
-9.0
 30
0.0
 40
28.22152
  1
300
 41
0.708351
  0
LINE
  5
786
  8
S
 10
701.6668
 20
80.0
 30
0.0
 11
701.6668
 21
-30.0
 31
0.0
  0
LINE
  5
787
  8
S
 10
806.6668
 20
77.0
 30
0.0
 11
806.6668
 21
-30.0
 31
0.0
  0
POLYLINE
  5
788
  8
S
 66
     1
 10
0.0
 20
0.0
 30
0.0
  0
VERTEX
  5
1758
  8
S
 10
723.6655
 20
-4.1055
 30
0.0
  0
VERTEX
  5
1759
  8
S
 10
701.6668
 20
-10.0
 30
0.0
  0
VERTEX
  5
175A
  8
S
 10
723.6655
 20
-15.8945
 30
0.0
  0
SEQEND
  5
175B
  8
S
  0
POLYLINE
  5
78D
  8
S
 66
     1
 10
0.0
 20
0.0
 30
0.0
  0
VERTEX
  5
175C
  8
S
 10
784.6681
 20
-15.8945
 30
0.0
  0
VERTEX
  5
175D
  8
S
 10
806.6668
 20
-10.0
 30
0.0
  0
VERTEX
  5
175E
  8
S
 10
784.6681
 20
-4.1055
 30
0.0
  0
SEQEND
  5
175F
  8
S
  0
LINE
  5
792
  8
S
 10
701.6668
 20
-10.0
 30
0.0
 11
806.6668
 21
-10.0
 31
0.0
  0
TEXT
  5
793
  8
S
 10
724.1807
 20
-9.0
 30
0.0
 40
28.22152
  1
105
 41
0.708351
  0
LINE
  5
794
  8
S
 10
806.6668
 20
77.0
 30
0.0
 11
806.6668
 21
-30.0
 31
0.0
  0
LINE
  5
795
  8
S
 10
1356.6668
 20
77.0
 30
0.0
 11
1356.6668
 21
-30.0
 31
0.0
  0
POLYLINE
  5
796
  8
S
 66
     1
 10
0.0
 20
0.0
 30
0.0
  0
VERTEX
  5
1760
  8
S
 10
828.6655
 20
-4.1055
 30
0.0
  0
VERTEX
  5
1761
  8
S
 10
806.6668
 20
-10.0
 30
0.0
  0
VERTEX
  5
1762
  8
S
 10
828.6655
 20
-15.8945
 30
0.0
  0
SEQEND
  5
1763
  8
S
  0
POLYLINE
  5
79B
  8
S
 66
     1
 10
0.0
 20
0.0
 30
0.0
  0
VERTEX
  5
1764
  8
S
 10
1334.6681
 20
-15.8945
 30
0.0
  0
VERTEX
  5
1765
  8
S
 10
1356.6668
 20
-10.0
 30
0.0
  0
VERTEX
  5
1766
  8
S
 10
1334.6681
 20
-4.1055
 30
0.0
  0
SEQEND
  5
1767
  8
S
  0
LINE
  5
7A0
  8
S
 10
806.6668
 20
-10.0
 30
0.0
 11
1356.6668
 21
-10.0
 31
0.0
  0
TEXT
  5
7A1
  8
S
 10
1051.6807
 20
-9.0
 30
0.0
 40
28.22152
  1
550
 41
0.708351
  0
LINE
  5
7A2
  8
S
 10
1356.6668
 20
77.0
 30
0.0
 11
1356.6668
 21
-30.0
 31
0.0
  0
LINE
  5
7A3
  8
S
 10
1401.6668
 20
80.0
 30
0.0
 11
1401.6668
 21
-30.0
 31
0.0
  0
POLYLINE
  5
7A4
  8
S
 66
     1
 10
0.0
 20
0.0
 30
0.0
  0
VERTEX
  5
1768
  8
S
 10
1334.6681
 20
-15.8945
 30
0.0
  0
VERTEX
  5
1769
  8
S
 10
1356.6668
 20
-10.0
 30
0.0
  0
VERTEX
  5
176A
  8
S
 10
1334.6681
 20
-4.1055
 30
0.0
  0
SEQEND
  5
176B
  8
S
  0
LINE
  5
7A9
  8
S
 10
1356.6668
 20
-10.0
 30
0.0
 11
1286.6668
 21
-10.0
 31
0.0
  0
POLYLINE
  5
7AA
  8
S
 66
     1
 10
0.0
 20
0.0
 30
0.0
  0
VERTEX
  5
176C
  8
S
 10
1423.6655
 20
-4.1055
 30
0.0
  0
VERTEX
  5
176D
  8
S
 10
1401.6668
 20
-10.0
 30
0.0
  0
VERTEX
  5
176E
  8
S
 10
1423.6655
 20
-15.8945
 30
0.0
  0
SEQEND
  5
176F
  8
S
  0
LINE
  5
7AF
  8
S
 10
1401.6668
 20
-10.0
 30
0.0
 11
1471.6668
 21
-10.0
 31
0.0
  0
LINE
  5
7B0
  8
S
 10
1401.6668
 20
-10.0
 30
0.0
 11
1356.6668
 21
-10.0
 31
0.0
  0
TEXT
  5
7B1
  8
S
 10
1358.0002
 20
-9.0
 30
0.0
 40
28.22152
  1
45
 41
0.750018
  0
LINE
  5
7B2
  8
S
 10
1401.6668
 20
80.0
 30
0.0
 11
1401.6668
 21
-30.0
 31
0.0
  0
LINE
  5
7B3
  8
S
 10
1501.6668
 20
80.0
 30
0.0
 11
1501.6668
 21
-30.0
 31
0.0
  0
POLYLINE
  5
7B4
  8
S
 66
     1
 10
0.0
 20
0.0
 30
0.0
  0
VERTEX
  5
1770
  8
S
 10
1423.6655
 20
-4.1055
 30
0.0
  0
VERTEX
  5
1771
  8
S
 10
1401.6668
 20
-10.0
 30
0.0
  0
VERTEX
  5
1772
  8
S
 10
1423.6655
 20
-15.8945
 30
0.0
  0
SEQEND
  5
1773
  8
S
  0
POLYLINE
  5
7B9
  8
S
 66
     1
 10
0.0
 20
0.0
 30
0.0
  0
VERTEX
  5
1774
  8
S
 10
1479.6681
 20
-15.8945
 30
0.0
  0
VERTEX
  5
1775
  8
S
 10
1501.6668
 20
-10.0
 30
0.0
  0
VERTEX
  5
1776
  8
S
 10
1479.6681
 20
-4.1055
 30
0.0
  0
SEQEND
  5
1777
  8
S
  0
LINE
  5
7BE
  8
S
 10
1401.6668
 20
-10.0
 30
0.0
 11
1501.6668
 21
-10.0
 31
0.0
  0
TEXT
  5
7BF
  8
S
 10
1421.6807
 20
-9.0
 30
0.0
 40
28.22152
  1
100
 41
0.708351
  0
LINE
  5
7C0
  8
S
 10
401.6668
 20
380.0
 30
0.0
 11
401.6668
 21
-110.0
 31
0.0
  0
LINE
  5
7C1
  8
S
 10
1081.6668
 20
285.0
 30
0.0
 11
1081.6668
 21
-110.0
 31
0.0
  0
POLYLINE
  5
7C2
  8
S
 66
     1
 10
0.0
 20
0.0
 30
0.0
  0
VERTEX
  5
1778
  8
S
 10
423.6655
 20
-84.1055
 30
0.0
  0
VERTEX
  5
1779
  8
S
 10
401.6668
 20
-90.0
 30
0.0
  0
VERTEX
  5
177A
  8
S
 10
423.6655
 20
-95.8945
 30
0.0
  0
SEQEND
  5
177B
  8
S
  0
POLYLINE
  5
7C7
  8
S
 66
     1
 10
0.0
 20
0.0
 30
0.0
  0
VERTEX
  5
177C
  8
S
 10
1059.6681
 20
-95.8945
 30
0.0
  0
VERTEX
  5
177D
  8
S
 10
1081.6668
 20
-90.0
 30
0.0
  0
VERTEX
  5
177E
  8
S
 10
1059.6681
 20
-84.1055
 30
0.0
  0
SEQEND
  5
177F
  8
S
  0
LINE
  5
7CC
  8
S
 10
401.6668
 20
-90.0
 30
0.0
 11
1081.6668
 21
-90.0
 31
0.0
  0
TEXT
  5
7CD
  8
S
 10
711.6807
 20
-89.0
 30
0.0
 40
28.22152
  1
680
 41
0.708351
  0
LINE
  5
7CE
  8
S
 10
1511.6668
 20
90.0
 30
0.0
 11
1621.6668
 21
90.0
 31
0.0
  0
LINE
  5
7CF
  8
S
 10
1511.6668
 20
1190.0
 30
0.0
 11
1621.6668
 21
1190.0
 31
0.0
  0
POLYLINE
  5
7D0
  8
S
 66
     1
 10
0.0
 20
0.0
 30
0.0
  0
VERTEX
  5
1780
  8
S
 10
1595.7723
 20
111.9987
 30
0.0
  0
VERTEX
  5
1781
  8
S
 10
1601.6668
 20
90.0
 30
0.0
  0
VERTEX
  5
1782
  8
S
 10
1607.5613
 20
111.9987
 30
0.0
  0
SEQEND
  5
1783
  8
S
  0
POLYLINE
  5
7D5
  8
S
 66
     1
 10
0.0
 20
0.0
 30
0.0
  0
VERTEX
  5
1784
  8
S
 10
1607.5613
 20
1168.0013
 30
0.0
  0
VERTEX
  5
1785
  8
S
 10
1601.6668
 20
1190.0
 30
0.0
  0
VERTEX
  5
1786
  8
S
 10
1595.7723
 20
1168.0013
 30
0.0
  0
SEQEND
  5
1787
  8
S
  0
LINE
  5
7DA
  8
S
 10
1601.6668
 20
90.0
 30
0.0
 11
1601.6668
 21
1190.0
 31
0.0
  0
TEXT
  5
7DB
  8
S
 10
1600.6669
 20
599.430599
 30
0.0
 40
28.22152
  1
1100
 50
90.0
 41
0.718768
  0
LINE
  5
7DC
  8
S
 10
1501.6668
 20
1200.0
 30
0.0
 11
1501.6668
 21
1310.0
 31
0.0
  0
LINE
  5
7DD
  8
S
 10
401.6668
 20
1200.0
 30
0.0
 11
401.6668
 21
1310.0
 31
0.0
  0
POLYLINE
  5
7DE
  8
S
 66
     1
 10
0.0
 20
0.0
 30
0.0
  0
VERTEX
  5
1788
  8
S
 10
1479.6681
 20
1284.1055
 30
0.0
  0
VERTEX
  5
1789
  8
S
 10
1501.6668
 20
1290.0
 30
0.0
  0
VERTEX
  5
178A
  8
S
 10
1479.6681
 20
1295.8945
 30
0.0
  0
SEQEND
  5
178B
  8
S
  0
POLYLINE
  5
7E3
  8
S
 66
     1
 10
0.0
 20
0.0
 30
0.0
  0
VERTEX
  5
178C
  8
S
 10
423.6655
 20
1295.8945
 30
0.0
  0
VERTEX
  5
178D
  8
S
 10
401.6668
 20
1290.0
 30
0.0
  0
VERTEX
  5
178E
  8
S
 10
423.6655
 20
1284.1055
 30
0.0
  0
SEQEND
  5
178F
  8
S
  0
LINE
  5
7E8
  8
S
 10
1501.6668
 20
1290.0
 30
0.0
 11
401.6668
 21
1290.0
 31
0.0
  0
TEXT
  5
7E9
  8
S
 10
911.0974
 20
1291.0
 30
0.0
 40
28.22152
  1
1100
 41
0.718768
  0
LINE
  5
7EA
  8
S
 10
691.6668
 20
90.0
 30
0.0
 11
281.6668
 21
90.0
 31
0.0
  0
LINE
  5
7EB
  8
S
 10
391.6668
 20
390.0
 30
0.0
 11
281.6668
 21
390.0
 31
0.0
  0
POLYLINE
  5
7EC
  8
S
 66
     1
 10
0.0
 20
0.0
 30
0.0
  0
VERTEX
  5
1790
  8
S
 10
295.7723
 20
111.9987
 30
0.0
  0
VERTEX
  5
1791
  8
S
 10
301.6668
 20
90.0
 30
0.0
  0
VERTEX
  5
1792
  8
S
 10
307.5613
 20
111.9987
 30
0.0
  0
SEQEND
  5
1793
  8
S
  0
POLYLINE
  5
7F1
  8
S
 66
     1
 10
0.0
 20
0.0
 30
0.0
  0
VERTEX
  5
1794
  8
S
 10
307.5613
 20
368.0013
 30
0.0
  0
VERTEX
  5
1795
  8
S
 10
301.6668
 20
390.0
 30
0.0
  0
VERTEX
  5
1796
  8
S
 10
295.7723
 20
368.0013
 30
0.0
  0
SEQEND
  5
1797
  8
S
  0
LINE
  5
7F6
  8
S
 10
301.6668
 20
90.0
 30
0.0
 11
301.6668
 21
390.0
 31
0.0
  0
TEXT
  5
7F7
  8
S
 10
300.6669
 20
210.013899
 30
0.0
 40
28.22152
  1
300
 50
90.0
 41
0.708351
  0
LINE
  5
7F8
  8
S
 10
391.6668
 20
390.0
 30
0.0
 11
281.6668
 21
390.0
 31
0.0
  0
LINE
  5
7F9
  8
S
 10
388.6668
 20
495.0
 30
0.0
 11
281.6668
 21
495.0
 31
0.0
  0
POLYLINE
  5
7FA
  8
S
 66
     1
 10
0.0
 20
0.0
 30
0.0
  0
VERTEX
  5
1798
  8
S
 10
295.7723
 20
411.9987
 30
0.0
  0
VERTEX
  5
1799
  8
S
 10
301.6668
 20
390.0
 30
0.0
  0
VERTEX
  5
179A
  8
S
 10
307.5613
 20
411.9987
 30
0.0
  0
SEQEND
  5
179B
  8
S
  0
POLYLINE
  5
7FF
  8
S
 66
     1
 10
0.0
 20
0.0
 30
0.0
  0
VERTEX
  5
179C
  8
S
 10
307.5613
 20
473.0013
 30
0.0
  0
VERTEX
  5
179D
  8
S
 10
301.6668
 20
495.0
 30
0.0
  0
VERTEX
  5
179E
  8
S
 10
295.7723
 20
473.0013
 30
0.0
  0
SEQEND
  5
179F
  8
S
  0
LINE
  5
804
  8
S
 10
301.6668
 20
390.0
 30
0.0
 11
301.6668
 21
495.0
 31
0.0
  0
TEXT
  5
805
  8
S
 10
300.6669
 20
412.513899
 30
0.0
 40
28.22152
  1
105
 50
90.0
 41
0.708351
  0
LINE
  5
806
  8
S
 10
388.6668
 20
495.0
 30
0.0
 11
281.6668
 21
495.0
 31
0.0
  0
LINE
  5
807
  8
S
 10
388.6668
 20
1045.0
 30
0.0
 11
281.6668
 21
1045.0
 31
0.0
  0
POLYLINE
  5
808
  8
S
 66
     1
 10
0.0
 20
0.0
 30
0.0
  0
VERTEX
  5
17A0
  8
S
 10
295.7723
 20
516.9987
 30
0.0
  0
VERTEX
  5
17A1
  8
S
 10
301.6668
 20
495.0
 30
0.0
  0
VERTEX
  5
17A2
  8
S
 10
307.5613
 20
516.9987
 30
0.0
  0
SEQEND
  5
17A3
  8
S
  0
POLYLINE
  5
80D
  8
S
 66
     1
 10
0.0
 20
0.0
 30
0.0
  0
VERTEX
  5
17A4
  8
S
 10
307.5613
 20
1023.0013
 30
0.0
  0
VERTEX
  5
17A5
  8
S
 10
301.6668
 20
1045.0
 30
0.0
  0
VERTEX
  5
17A6
  8
S
 10
295.7723
 20
1023.0013
 30
0.0
  0
SEQEND
  5
17A7
  8
S
  0
LINE
  5
812
  8
S
 10
301.6668
 20
495.0
 30
0.0
 11
301.6668
 21
1045.0
 31
0.0
  0
TEXT
  5
813
  8
S
 10
300.6669
 20
740.013899
 30
0.0
 40
28.22152
  1
550
 50
90.0
 41
0.708351
  0
LINE
  5
814
  8
S
 10
388.6668
 20
1045.0
 30
0.0
 11
281.6668
 21
1045.0
 31
0.0
  0
LINE
  5
815
  8
S
 10
391.6668
 20
1090.0
 30
0.0
 11
281.6668
 21
1090.0
 31
0.0
  0
POLYLINE
  5
816
  8
S
 66
     1
 10
0.0
 20
0.0
 30
0.0
  0
VERTEX
  5
17A8
  8
S
 10
307.5613
 20
1023.0013
 30
0.0
  0
VERTEX
  5
17A9
  8
S
 10
301.6668
 20
1045.0
 30
0.0
  0
VERTEX
  5
17AA
  8
S
 10
295.7723
 20
1023.0013
 30
0.0
  0
SEQEND
  5
17AB
  8
S
  0
LINE
  5
81B
  8
S
 10
301.6668
 20
1045.0
 30
0.0
 11
301.6668
 21
975.0
 31
0.0
  0
POLYLINE
  5
81C
  8
S
 66
     1
 10
0.0
 20
0.0
 30
0.0
  0
VERTEX
  5
17AC
  8
S
 10
295.7723
 20
1111.9987
 30
0.0
  0
VERTEX
  5
17AD
  8
S
 10
301.6668
 20
1090.0
 30
0.0
  0
VERTEX
  5
17AE
  8
S
 10
307.5613
 20
1111.9987
 30
0.0
  0
SEQEND
  5
17AF
  8
S
  0
LINE
  5
821
  8
S
 10
301.6668
 20
1090.0
 30
0.0
 11
301.6668
 21
1160.0
 31
0.0
  0
LINE
  5
822
  8
S
 10
301.6668
 20
1090.0
 30
0.0
 11
301.6668
 21
1045.0
 31
0.0
  0
TEXT
  5
823
  8
S
 10
300.6669
 20
1046.333399
 30
0.0
 40
28.22152
  1
45
 50
90.0
 41
0.750018
  0
LINE
  5
824
  8
S
 10
391.6668
 20
1090.0
 30
0.0
 11
281.6668
 21
1090.0
 31
0.0
  0
LINE
  5
825
  8
S
 10
391.6668
 20
1190.0
 30
0.0
 11
281.6668
 21
1190.0
 31
0.0
  0
POLYLINE
  5
826
  8
S
 66
     1
 10
0.0
 20
0.0
 30
0.0
  0
VERTEX
  5
17B0
  8
S
 10
295.7723
 20
1111.9987
 30
0.0
  0
VERTEX
  5
17B1
  8
S
 10
301.6668
 20
1090.0
 30
0.0
  0
VERTEX
  5
17B2
  8
S
 10
307.5613
 20
1111.9987
 30
0.0
  0
SEQEND
  5
17B3
  8
S
  0
POLYLINE
  5
82B
  8
S
 66
     1
 10
0.0
 20
0.0
 30
0.0
  0
VERTEX
  5
17B4
  8
S
 10
307.5613
 20
1168.0013
 30
0.0
  0
VERTEX
  5
17B5
  8
S
 10
301.6668
 20
1190.0
 30
0.0
  0
VERTEX
  5
17B6
  8
S
 10
295.7723
 20
1168.0013
 30
0.0
  0
SEQEND
  5
17B7
  8
S
  0
LINE
  5
830
  8
S
 10
301.6668
 20
1090.0
 30
0.0
 11
301.6668
 21
1190.0
 31
0.0
  0
TEXT
  5
831
  8
S
 10
300.6669
 20
1110.013899
 30
0.0
 40
28.22152
  1
100
 50
90.0
 41
0.708351
  0
LINE
  5
832
  8
S
 10
691.6668
 20
90.0
 30
0.0
 11
201.6668
 21
90.0
 31
0.0
  0
LINE
  5
833
  8
S
 10
585.6668
 20
770.0
 30
0.0
 11
201.6668
 21
770.0
 31
0.0
  0
POLYLINE
  5
834
  8
S
 66
     1
 10
0.0
 20
0.0
 30
0.0
  0
VERTEX
  5
17B8
  8
S
 10
215.7723
 20
111.9987
 30
0.0
  0
VERTEX
  5
17B9
  8
S
 10
221.6668
 20
90.0
 30
0.0
  0
VERTEX
  5
17BA
  8
S
 10
227.5613
 20
111.9987
 30
0.0
  0
SEQEND
  5
17BB
  8
S
  0
POLYLINE
  5
839
  8
S
 66
     1
 10
0.0
 20
0.0
 30
0.0
  0
VERTEX
  5
17BC
  8
S
 10
227.5613
 20
748.0013
 30
0.0
  0
VERTEX
  5
17BD
  8
S
 10
221.6668
 20
770.0
 30
0.0
  0
VERTEX
  5
17BE
  8
S
 10
215.7723
 20
748.0013
 30
0.0
  0
SEQEND
  5
17BF
  8
S
  0
LINE
  5
83E
  8
S
 10
221.6668
 20
90.0
 30
0.0
 11
221.6668
 21
770.0
 31
0.0
  0
TEXT
  5
83F
  8
S
 10
220.6669
 20
400.013899
 30
0.0
 40
28.22152
  1
680
 50
90.0
 41
0.708351
  0
TEXT
  5
840
  8
S
 10
-31.2412
 20
650.2246
 30
0.0
 40
28.22152
  1
ïýô«òöÿAîïÄ▓
 41
0.622965
  0
TEXT
  5
841
  8
S
 10
-33.1581
 20
926.2604
 30
0.0
 40
28.22152
  1
âëâbâNïýô«ÿg
 41
0.622965
  0
LINE
  5
842
  8
S
 10
-33.1581
 20
929.7039
 30
0.0
 11
179.6195
 21
929.7039
 31
0.0
  0
POLYLINE
  5
843
  8
S
 66
     1
 10
0.0
 20
0.0
 30
0.0
  0
VERTEX
  5
17C0
  8
S
 10
664.3898
 20
679.7351
 30
0.0
  0
VERTEX
  5
17C1
  8
S
 10
686.6668
 20
675.0
 30
0.0
  0
VERTEX
  5
17C2
  8
S
 10
669.7419
 20
690.2392
 30
0.0
  0
SEQEND
  5
17C3
  8
S
  0
LINE
  5
848
  8
S
 10
179.6195
 20
929.7039
 30
0.0
 11
686.6668
 21
675.0
 31
0.0
  0
LINE
  5
849
  8
S
 10
-31.2412
 20
653.6681
 30
0.0
 11
181.5364
 21
653.6681
 31
0.0
  0
POLYLINE
  5
84A
  8
S
 66
     1
 10
0.0
 20
0.0
 30
0.0
  0
VERTEX
  5
17C4
  8
S
 10
478.4003
 20
581.6076
 30
0.0
  0
VERTEX
  5
17C5
  8
S
 10
501.1611
 20
582.4024
 30
0.0
  0
VERTEX
  5
17C6
  8
S
 10
481.0522
 20
593.0945
 30
0.0
  0
SEQEND
  5
17C7
  8
S
  0
LINE
  5
84F
  8
S
 10
181.5364
 20
653.6681
 30
0.0
 11
501.1611
 21
582.4024
 31
0.0
  0
LINE
  5
850
  8
S
 10
766.6668
 20
860.0
 30
0.0
 11
766.6668
 21
996.0
 31
0.0
  0
POLYLINE
  5
851
  8
S
 66
     1
 10
0.0
 20
0.0
 30
0.0
  0
VERTEX
  5
17C8
  8
S
 10
744.6681
 20
970.1055
 30
0.0
  0
VERTEX
  5
17C9
  8
S
 10
766.6668
 20
976.0
 30
0.0
  0
VERTEX
  5
17CA
  8
S
 10
744.6681
 20
981.8945
 30
0.0
  0
SEQEND
  5
17CB
  8
S
  0
POLYLINE
  5
856
  8
S
 66
     1
 10
0.0
 20
0.0
 30
0.0
  0
VERTEX
  5
17CC
  8
S
 10
423.6655
 20
981.8945
 30
0.0
  0
VERTEX
  5
17CD
  8
S
 10
401.6668
 20
976.0
 30
0.0
  0
VERTEX
  5
17CE
  8
S
 10
423.6655
 20
970.1055
 30
0.0
  0
SEQEND
  5
17CF
  8
S
  0
LINE
  5
85B
  8
S
 10
766.6668
 20
976.0
 30
0.0
 11
401.6668
 21
976.0
 31
0.0
  0
TEXT
  5
85C
  8
S
 10
620.68
 20
977.0
 30
0.0
 40
28.22152
  1
365
 41
0.708351
  0
LINE
  5
85D
  8
S
 10
771.6668
 20
855.0
 30
0.0
 11
1187.6667
 21
855.0
 31
0.0
  0
POLYLINE
  5
85E
  8
S
 66
     1
 10
0.0
 20
0.0
 30
0.0
  0
VERTEX
  5
17D0
  8
S
 10
1161.7722
 20
876.9987
 30
0.0
  0
VERTEX
  5
17D1
  8
S
 10
1167.6667
 20
855.0
 30
0.0
  0
VERTEX
  5
17D2
  8
S
 10
1173.5612
 20
876.9987
 30
0.0
  0
SEQEND
  5
17D3
  8
S
  0
POLYLINE
  5
863
  8
S
 66
     1
 10
0.0
 20
0.0
 30
0.0
  0
VERTEX
  5
17D4
  8
S
 10
1173.5612
 20
1168.0013
 30
0.0
  0
VERTEX
  5
17D5
  8
S
 10
1167.6667
 20
1190.0
 30
0.0
  0
VERTEX
  5
17D6
  8
S
 10
1161.7722
 20
1168.0013
 30
0.0
  0
SEQEND
  5
17D7
  8
S
  0
LINE
  5
868
  8
S
 10
1167.6667
 20
855.0
 30
0.0
 11
1167.6667
 21
1190.0
 31
0.0
  0
TEXT
  5
869
  8
S
 10
1166.6668
 20
974.791699
 30
0.0
 40
28.22152
  1
335
 50
90.0
 41
0.708351
  0
LINE
  5
86A
  8
S
 10
35.5135
 20
1295.9793
 30
0.0
 11
244.6997
 21
1295.9793
 31
0.0
  0
POLYLINE
  5
86B
  8
S
 66
     1
 10
0.0
 20
0.0
 30
0.0
  0
VERTEX
  5
17D8
  8
S
 10
717.197
 20
883.9838
 30
0.0
  0
VERTEX
  5
17D9
  8
S
 10
737.6668
 20
874.0
 30
0.0
  0
VERTEX
  5
17DA
  8
S
 10
724.9313
 20
892.8811
 30
0.0
  0
SEQEND
  5
17DB
  8
S
  0
LINE
  5
870
  8
S
 10
244.6997
 20
1295.9793
 30
0.0
 11
737.6668
 21
874.0
 31
0.0
  0
TEXT
  5
871
  8
S
 10
61.5136
 20
1287.4163
 30
0.0
 40
28.22152
  1
örÉàü@40A
 41
0.651027
  0
LINE
  5
872
  8
S
 10
-648.3332
 20
89.0
 30
0.0
 11
-778.8332
 21
89.0
 31
0.0
  0
LINE
  5
873
  8
S
 10
-653.3332
 20
115.0
 30
0.0
 11
-778.8332
 21
115.0
 31
0.0
  0
POLYLINE
  5
874
  8
S
 66
     1
 10
0.0
 20
0.0
 30
0.0
  0
VERTEX
  5
17DC
  8
S
 10
-752.9387
 20
67.0013
 30
0.0
  0
VERTEX
  5
17DD
  8
S
 10
-758.8332
 20
89.0
 30
0.0
  0
VERTEX
  5
17DE
  8
S
 10
-764.7277
 20
67.0013
 30
0.0
  0
SEQEND
  5
17DF
  8
S
  0
LINE
  5
879
  8
S
 10
-758.8332
 20
89.0
 30
0.0
 11
-758.8332
 21
19.0
 31
0.0
  0
POLYLINE
  5
87A
  8
S
 66
     1
 10
0.0
 20
0.0
 30
0.0
  0
VERTEX
  5
17E0
  8
S
 10
-764.7277
 20
136.9987
 30
0.0
  0
VERTEX
  5
17E1
  8
S
 10
-758.8332
 20
115.0
 30
0.0
  0
VERTEX
  5
17E2
  8
S
 10
-752.9387
 20
136.9987
 30
0.0
  0
SEQEND
  5
17E3
  8
S
  0
LINE
  5
87F
  8
S
 10
-758.8332
 20
115.0
 30
0.0
 11
-758.8332
 21
325.4444
 31
0.0
  0
LINE
  5
880
  8
S
 10
-758.8332
 20
115.0
 30
0.0
 11
-758.8332
 21
89.0
 31
0.0
  0
TEXT
  5
881
  8
S
 10
-759.8331
 20
141.999999
 30
0.0
 40
28.22152
  1
26üiôÓÉ%%düj
 50
90.0
 41
0.650016
  0
LINE
  5
882
  8
S
 10
-443.3332
 20
80.0
 30
0.0
 11
-443.3332
 21
-270.0
 31
0.0
  0
LINE
  5
883
  8
S
 10
-1468.3332
 20
202.0
 30
0.0
 11
-1468.3332
 21
-270.0
 31
0.0
  0
POLYLINE
  5
884
  8
S
 66
     1
 10
0.0
 20
0.0
 30
0.0
  0
VERTEX
  5
17E4
  8
S
 10
-465.3319
 20
-255.8945
 30
0.0
  0
VERTEX
  5
17E5
  8
S
 10
-443.3332
 20
-250.0
 30
0.0
  0
VERTEX
  5
17E6
  8
S
 10
-465.3319
 20
-244.1055
 30
0.0
  0
SEQEND
  5
17E7
  8
S
  0
POLYLINE
  5
889
  8
S
 66
     1
 10
0.0
 20
0.0
 30
0.0
  0
VERTEX
  5
17E8
  8
S
 10
-1446.3345
 20
-244.1055
 30
0.0
  0
VERTEX
  5
17E9
  8
S
 10
-1468.3332
 20
-250.0
 30
0.0
  0
VERTEX
  5
17EA
  8
S
 10
-1446.3345
 20
-255.8945
 30
0.0
  0
SEQEND
  5
17EB
  8
S
  0
LINE
  5
88E
  8
S
 10
-443.3332
 20
-250.0
 30
0.0
 11
-1468.3332
 21
-250.0
 31
0.0
  0
TEXT
  5
88F
  8
S
 10
-996.4026
 20
-249.0
 30
0.0
 40
28.22152
  1
1025
 41
0.718768
  0
LINE
  5
890
  8
S
 10
-643.3332
 20
105.0
 30
0.0
 11
-643.3332
 21
-30.0
 31
0.0
  0
LINE
  5
891
  8
S
 10
-593.3332
 20
80.0
 30
0.0
 11
-593.3332
 21
-30.0
 31
0.0
  0
POLYLINE
  5
892
  8
S
 66
     1
 10
0.0
 20
0.0
 30
0.0
  0
VERTEX
  5
17EC
  8
S
 10
-665.3319
 20
-15.8945
 30
0.0
  0
VERTEX
  5
17ED
  8
S
 10
-643.3332
 20
-10.0
 30
0.0
  0
VERTEX
  5
17EE
  8
S
 10
-665.3319
 20
-4.1055
 30
0.0
  0
SEQEND
  5
17EF
  8
S
  0
LINE
  5
897
  8
S
 10
-643.3332
 20
-10.0
 30
0.0
 11
-713.3332
 21
-10.0
 31
0.0
  0
POLYLINE
  5
898
  8
S
 66
     1
 10
0.0
 20
0.0
 30
0.0
  0
VERTEX
  5
17F0
  8
S
 10
-571.3345
 20
-4.1055
 30
0.0
  0
VERTEX
  5
17F1
  8
S
 10
-593.3332
 20
-10.0
 30
0.0
  0
VERTEX
  5
17F2
  8
S
 10
-571.3345
 20
-15.8945
 30
0.0
  0
SEQEND
  5
17F3
  8
S
  0
LINE
  5
89D
  8
S
 10
-593.3332
 20
-10.0
 30
0.0
 11
-523.3332
 21
-10.0
 31
0.0
  0
LINE
  5
89E
  8
S
 10
-593.3332
 20
-10.0
 30
0.0
 11
-643.3332
 21
-10.0
 31
0.0
  0
TEXT
  5
89F
  8
S
 10
-639.4998
 20
-9.0
 30
0.0
 40
28.22152
  1
50
 41
0.750018
  0
LINE
  5
8A0
  8
S
 10
-668.3332
 20
250.0
 30
0.0
 11
-668.3332
 21
-110.0
 31
0.0
  0
LINE
  5
8A1
  8
S
 10
-593.3332
 20
80.0
 30
0.0
 11
-593.3332
 21
-110.0
 31
0.0
  0
POLYLINE
  5
8A2
  8
S
 66
     1
 10
0.0
 20
0.0
 30
0.0
  0
VERTEX
  5
17F4
  8
S
 10
-690.3319
 20
-95.8945
 30
0.0
  0
VERTEX
  5
17F5
  8
S
 10
-668.3332
 20
-90.0
 30
0.0
  0
VERTEX
  5
17F6
  8
S
 10
-690.3319
 20
-84.1055
 30
0.0
  0
SEQEND
  5
17F7
  8
S
  0
LINE
  5
8A7
  8
S
 10
-668.3332
 20
-90.0
 30
0.0
 11
-738.3332
 21
-90.0
 31
0.0
  0
POLYLINE
  5
8A8
  8
S
 66
     1
 10
0.0
 20
0.0
 30
0.0
  0
VERTEX
  5
17F8
  8
S
 10
-571.3345
 20
-84.1055
 30
0.0
  0
VERTEX
  5
17F9
  8
S
 10
-593.3332
 20
-90.0
 30
0.0
  0
VERTEX
  5
17FA
  8
S
 10
-571.3345
 20
-95.8945
 30
0.0
  0
SEQEND
  5
17FB
  8
S
  0
LINE
  5
8AD
  8
S
 10
-593.3332
 20
-90.0
 30
0.0
 11
-523.3332
 21
-90.0
 31
0.0
  0
LINE
  5
8AE
  8
S
 10
-593.3332
 20
-90.0
 30
0.0
 11
-668.3332
 21
-90.0
 31
0.0
  0
TEXT
  5
8AF
  8
S
 10
-651.9998
 20
-89.0
 30
0.0
 40
28.22152
  1
75
 41
0.750018
  0
LINE
  5
8B0
  8
S
 10
396.6668
 20
-130.0
 30
0.0
 11
81.6668
 21
-130.0
 31
0.0
  0
LINE
  5
8B1
  8
S
 10
396.6668
 20
-280.0
 30
0.0
 11
81.6668
 21
-280.0
 31
0.0
  0
POLYLINE
  5
8B2
  8
S
 66
     1
 10
0.0
 20
0.0
 30
0.0
  0
VERTEX
  5
17FC
  8
S
 10
107.5613
 20
-151.9987
 30
0.0
  0
VERTEX
  5
17FD
  8
S
 10
101.6668
 20
-130.0
 30
0.0
  0
VERTEX
  5
17FE
  8
S
 10
95.7723
 20
-151.9987
 30
0.0
  0
SEQEND
  5
17FF
  8
S
  0
POLYLINE
  5
8B7
  8
S
 66
     1
 10
0.0
 20
0.0
 30
0.0
  0
VERTEX
  5
1800
  8
S
 10
95.7723
 20
-258.0013
 30
0.0
  0
VERTEX
  5
1801
  8
S
 10
101.6668
 20
-280.0
 30
0.0
  0
VERTEX
  5
1802
  8
S
 10
107.5613
 20
-258.0013
 30
0.0
  0
SEQEND
  5
1803
  8
S
  0
LINE
  5
8BC
  8
S
 10
101.6668
 20
-130.0
 30
0.0
 11
101.6668
 21
-280.0
 31
0.0
  0
TEXT
  5
8BD
  8
S
 10
100.6669
 20
-239.987201
 30
0.0
 40
28.22152
  1
150
 50
90.0
 41
0.708351
  0
LINE
  5
8BE
  8
S
 10
400.6668
 20
-335.0
 30
0.0
 11
400.6668
 21
-433.0
 31
0.0
  0
LINE
  5
8BF
  8
S
 10
426.6668
 20
-340.0
 30
0.0
 11
426.6668
 21
-433.0
 31
0.0
  0
POLYLINE
  5
8C0
  8
S
 66
     1
 10
0.0
 20
0.0
 30
0.0
  0
VERTEX
  5
1804
  8
S
 10
378.6681
 20
-418.8945
 30
0.0
  0
VERTEX
  5
1805
  8
S
 10
400.6668
 20
-413.0
 30
0.0
  0
VERTEX
  5
1806
  8
S
 10
378.6681
 20
-407.1055
 30
0.0
  0
SEQEND
  5
1807
  8
S
  0
LINE
  5
8C5
  8
S
 10
400.6668
 20
-413.0
 30
0.0
 11
182.2224
 21
-413.0
 31
0.0
  0
POLYLINE
  5
8C6
  8
S
 66
     1
 10
0.0
 20
0.0
 30
0.0
  0
VERTEX
  5
1808
  8
S
 10
448.6655
 20
-407.1055
 30
0.0
  0
VERTEX
  5
1809
  8
S
 10
426.6668
 20
-413.0
 30
0.0
  0
VERTEX
  5
180A
  8
S
 10
448.6655
 20
-418.8945
 30
0.0
  0
SEQEND
  5
180B
  8
S
  0
LINE
  5
8CB
  8
S
 10
426.6668
 20
-413.0
 30
0.0
 11
496.6668
 21
-413.0
 31
0.0
  0
LINE
  5
8CC
  8
S
 10
426.6668
 20
-413.0
 30
0.0
 11
400.6668
 21
-413.0
 31
0.0
  0
TEXT
  5
8CD
  8
S
 10
182.2224
 20
-412.0
 30
0.0
 40
28.22152
  1
26üiôÓÉ%%düj
 41
0.650016
  0
LINE
  5
8CE
  8
S
 10
383.6668
 20
-305.0
 30
0.0
 11
81.6668
 21
-305.0
 31
0.0
  0
LINE
  5
8CF
  8
S
 10
598.1668
 20
-1155.0
 30
0.0
 11
81.6668
 21
-1155.0
 31
0.0
  0
POLYLINE
  5
8D0
  8
S
 66
     1
 10
0.0
 20
0.0
 30
0.0
  0
VERTEX
  5
180C
  8
S
 10
107.5613
 20
-326.9987
 30
0.0
  0
VERTEX
  5
180D
  8
S
 10
101.6668
 20
-305.0
 30
0.0
  0
VERTEX
  5
180E
  8
S
 10
95.7723
 20
-326.9987
 30
0.0
  0
SEQEND
  5
180F
  8
S
  0
POLYLINE
  5
8D5
  8
S
 66
     1
 10
0.0
 20
0.0
 30
0.0
  0
VERTEX
  5
1810
  8
S
 10
95.7723
 20
-1133.0013
 30
0.0
  0
VERTEX
  5
1811
  8
S
 10
101.6668
 20
-1155.0
 30
0.0
  0
VERTEX
  5
1812
  8
S
 10
107.5613
 20
-1133.0013
 30
0.0
  0
SEQEND
  5
1813
  8
S
  0
LINE
  5
8DA
  8
S
 10
101.6668
 20
-305.0
 30
0.0
 11
101.6668
 21
-1155.0
 31
0.0
  0
TEXT
  5
8DB
  8
S
 10
100.6669
 20
-741.463101
 30
0.0
 40
28.22152
  1
850üiâeü[âuâïû╩üj
 50
90.0
 41
0.639722
  0
LINE
  5
8DC
  8
S
 10
396.6668
 20
-280.0
 30
0.0
 11
81.6668
 21
-280.0
 31
0.0
  0
LINE
  5
8DD
  8
S
 10
393.6668
 20
-305.0
 30
0.0
 11
81.6668
 21
-305.0
 31
0.0
  0
POLYLINE
  5
8DE
  8
S
 66
     1
 10
0.0
 20
0.0
 30
0.0
  0
VERTEX
  5
1814
  8
S
 10
95.7723
 20
-258.0013
 30
0.0
  0
VERTEX
  5
1815
  8
S
 10
101.6668
 20
-280.0
 30
0.0
  0
VERTEX
  5
1816
  8
S
 10
107.5613
 20
-258.0013
 30
0.0
  0
SEQEND
  5
1817
  8
S
  0
LINE
  5
8E3
  8
S
 10
101.6668
 20
-280.0
 30
0.0
 11
101.6668
 21
-210.0
 31
0.0
  0
POLYLINE
  5
8E4
  8
S
 66
     1
 10
0.0
 20
0.0
 30
0.0
  0
VERTEX
  5
1818
  8
S
 10
107.5613
 20
-326.9987
 30
0.0
  0
VERTEX
  5
1819
  8
S
 10
101.6668
 20
-305.0
 30
0.0
  0
VERTEX
  5
181A
  8
S
 10
95.7723
 20
-326.9987
 30
0.0
  0
SEQEND
  5
181B
  8
S
  0
LINE
  5
8E9
  8
S
 10
101.6668
 20
-305.0
 30
0.0
 11
101.6668
 21
-375.0
 31
0.0
  0
LINE
  5
8EA
  8
S
 10
101.6668
 20
-305.0
 30
0.0
 11
101.6668
 21
-280.0
 31
0.0
  0
TEXT
  5
8EB
  8
S
 10
100.6669
 20
-313.666601
 30
0.0
 40
28.22152
  1
25
 50
90.0
 41
0.750018
  0
LINE
  5
8EC
  8
S
 10
1231.6668
 20
-305.0
 30
0.0
 11
1231.6668
 21
-216.0
 31
0.0
  0
LINE
  5
8ED
  8
S
 10
931.6668
 20
-305.0
 30
0.0
 11
931.6668
 21
-216.0
 31
0.0
  0
POLYLINE
  5
8EE
  8
S
 66
     1
 10
0.0
 20
0.0
 30
0.0
  0
VERTEX
  5
181C
  8
S
 10
1209.6681
 20
-241.8945
 30
0.0
  0
VERTEX
  5
181D
  8
S
 10
1231.6668
 20
-236.0
 30
0.0
  0
VERTEX
  5
181E
  8
S
 10
1209.6681
 20
-230.1055
 30
0.0
  0
SEQEND
  5
181F
  8
S
  0
POLYLINE
  5
8F3
  8
S
 66
     1
 10
0.0
 20
0.0
 30
0.0
  0
VERTEX
  5
1820
  8
S
 10
953.6655
 20
-230.1055
 30
0.0
  0
VERTEX
  5
1821
  8
S
 10
931.6668
 20
-236.0
 30
0.0
  0
VERTEX
  5
1822
  8
S
 10
953.6655
 20
-241.8945
 30
0.0
  0
SEQEND
  5
1823
  8
S
  0
LINE
  5
8F8
  8
S
 10
1231.6668
 20
-236.0
 30
0.0
 11
931.6668
 21
-236.0
 31
0.0
  0
TEXT
  5
8F9
  8
S
 10
1051.6807
 20
-235.0
 30
0.0
 40
28.22152
  1
300
 41
0.708351
  0
LINE
  5
8FA
  8
S
 10
921.6668
 20
-315.0
 30
0.0
 11
867.6668
 21
-315.0
 31
0.0
  0
LINE
  5
8FB
  8
S
 10
921.6668
 20
-305.0
 30
0.0
 11
867.6668
 21
-305.0
 31
0.0
  0
POLYLINE
  5
8FC
  8
S
 66
     1
 10
0.0
 20
0.0
 30
0.0
  0
VERTEX
  5
1824
  8
S
 10
893.5613
 20
-336.9987
 30
0.0
  0
VERTEX
  5
1825
  8
S
 10
887.6668
 20
-315.0
 30
0.0
  0
VERTEX
  5
1826
  8
S
 10
881.7723
 20
-336.9987
 30
0.0
  0
SEQEND
  5
1827
  8
S
  0
LINE
  5
901
  8
S
 10
887.6668
 20
-315.0
 30
0.0
 11
887.6668
 21
-385.0
 31
0.0
  0
POLYLINE
  5
902
  8
S
 66
     1
 10
0.0
 20
0.0
 30
0.0
  0
VERTEX
  5
1828
  8
S
 10
881.7723
 20
-283.0013
 30
0.0
  0
VERTEX
  5
1829
  8
S
 10
887.6668
 20
-305.0
 30
0.0
  0
VERTEX
  5
182A
  8
S
 10
893.5613
 20
-283.0013
 30
0.0
  0
SEQEND
  5
182B
  8
S
  0
LINE
  5
907
  8
S
 10
887.6668
 20
-305.0
 30
0.0
 11
887.6668
 21
-227.6667
 31
0.0
  0
LINE
  5
908
  8
S
 10
887.6668
 20
-305.0
 30
0.0
 11
887.6668
 21
-315.0
 31
0.0
  0
TEXT
  5
909
  8
S
 10
886.6669
 20
-270.000001
 30
0.0
 40
28.22152
  1
10
 50
90.0
 41
0.750018
  0
LINE
  5
90A
  8
S
 10
863.6668
 20
-325.0
 30
0.0
 11
813.6668
 21
-325.0
 31
0.0
  0
LINE
  5
90B
  8
S
 10
862.6669
 20
-305.0
 30
0.0
 11
813.6668
 21
-305.0
 31
0.0
  0
POLYLINE
  5
90C
  8
S
 66
     1
 10
0.0
 20
0.0
 30
0.0
  0
VERTEX
  5
182C
  8
S
 10
839.5613
 20
-346.9987
 30
0.0
  0
VERTEX
  5
182D
  8
S
 10
833.6668
 20
-325.0
 30
0.0
  0
VERTEX
  5
182E
  8
S
 10
827.7723
 20
-346.9987
 30
0.0
  0
SEQEND
  5
182F
  8
S
  0
LINE
  5
911
  8
S
 10
833.6668
 20
-325.0
 30
0.0
 11
833.6668
 21
-395.0
 31
0.0
  0
POLYLINE
  5
912
  8
S
 66
     1
 10
0.0
 20
0.0
 30
0.0
  0
VERTEX
  5
1830
  8
S
 10
827.7723
 20
-283.0013
 30
0.0
  0
VERTEX
  5
1831
  8
S
 10
833.6668
 20
-305.0
 30
0.0
  0
VERTEX
  5
1832
  8
S
 10
839.5613
 20
-283.0013
 30
0.0
  0
SEQEND
  5
1833
  8
S
  0
LINE
  5
917
  8
S
 10
833.6668
 20
-305.0
 30
0.0
 11
833.6668
 21
-221.6667
 31
0.0
  0
LINE
  5
918
  8
S
 10
833.6668
 20
-305.0
 30
0.0
 11
833.6668
 21
-325.0
 31
0.0
  0
TEXT
  5
919
  8
S
 10
832.6669
 20
-264.000001
 30
0.0
 40
28.22152
  1
20
 50
90.0
 41
0.750018
  0
LINE
  5
91A
  8
S
 10
1089.6668
 20
-450.0
 30
0.0
 11
985.6668
 21
-450.0
 31
0.0
  0
POLYLINE
  5
91B
  8
S
 66
     1
 10
0.0
 20
0.0
 30
0.0
  0
VERTEX
  5
1834
  8
S
 10
948.7298
 20
-337.6559
 30
0.0
  0
VERTEX
  5
1835
  8
S
 10
935.6668
 20
-319.0
 30
0.0
  0
VERTEX
  5
1836
  8
S
 10
937.6517
 20
-341.688
 30
0.0
  0
SEQEND
  5
1837
  8
S
  0
LINE
  5
920
  8
S
 10
985.6668
 20
-450.0
 30
0.0
 11
935.6668
 21
-319.0
 31
0.0
  0
TEXT
  5
921
  8
S
 10
990.9785
 20
-460.7223
 30
0.0
 40
28.22152
  1
2-âË6
 41
0.646537
  0
LINE
  5
922
  8
S
 10
-618.3332
 20
620.0
 30
0.0
 11
-528.8332
 21
620.0
 31
0.0
  0
LINE
  5
923
  8
S
 10
-618.3332
 20
920.0
 30
0.0
 11
-528.8332
 21
920.0
 31
0.0
  0
POLYLINE
  5
924
  8
S
 66
     1
 10
0.0
 20
0.0
 30
0.0
  0
VERTEX
  5
1838
  8
S
 10
-554.7277
 20
641.9987
 30
0.0
  0
VERTEX
  5
1839
  8
S
 10
-548.8332
 20
620.0
 30
0.0
  0
VERTEX
  5
183A
  8
S
 10
-542.9387
 20
641.9987
 30
0.0
  0
SEQEND
  5
183B
  8
S
  0
POLYLINE
  5
929
  8
S
 66
     1
 10
0.0
 20
0.0
 30
0.0
  0
VERTEX
  5
183C
  8
S
 10
-542.9387
 20
898.0013
 30
0.0
  0
VERTEX
  5
183D
  8
S
 10
-548.8332
 20
920.0
 30
0.0
  0
VERTEX
  5
183E
  8
S
 10
-554.7277
 20
898.0013
 30
0.0
  0
SEQEND
  5
183F
  8
S
  0
LINE
  5
92E
  8
S
 10
-548.8332
 20
620.0
 30
0.0
 11
-548.8332
 21
920.0
 31
0.0
  0
TEXT
  5
92F
  8
S
 10
-549.8331
 20
740.013899
 30
0.0
 40
28.22152
  1
300
 50
90.0
 41
0.708351
  0
LINE
  5
930
  8
S
 10
-628.3332
 20
610.0
 30
0.0
 11
-628.3332
 21
551.0
 31
0.0
  0
LINE
  5
931
  8
S
 10
-618.3332
 20
585.0
 30
0.0
 11
-618.3332
 21
551.0
 31
0.0
  0
POLYLINE
  5
932
  8
S
 66
     1
 10
0.0
 20
0.0
 30
0.0
  0
VERTEX
  5
1840
  8
S
 10
-650.3319
 20
565.1055
 30
0.0
  0
VERTEX
  5
1841
  8
S
 10
-628.3332
 20
571.0
 30
0.0
  0
VERTEX
  5
1842
  8
S
 10
-650.3319
 20
576.8945
 30
0.0
  0
SEQEND
  5
1843
  8
S
  0
LINE
  5
937
  8
S
 10
-628.3332
 20
571.0
 30
0.0
 11
-698.3332
 21
571.0
 31
0.0
  0
POLYLINE
  5
938
  8
S
 66
     1
 10
0.0
 20
0.0
 30
0.0
  0
VERTEX
  5
1844
  8
S
 10
-596.3345
 20
576.8945
 30
0.0
  0
VERTEX
  5
1845
  8
S
 10
-618.3332
 20
571.0
 30
0.0
  0
VERTEX
  5
1846
  8
S
 10
-596.3345
 20
565.1055
 30
0.0
  0
SEQEND
  5
1847
  8
S
  0
LINE
  5
93D
  8
S
 10
-618.3332
 20
571.0
 30
0.0
 11
-520.4999
 21
571.0
 31
0.0
  0
LINE
  5
93E
  8
S
 10
-618.3332
 20
571.0
 30
0.0
 11
-628.3332
 21
571.0
 31
0.0
  0
TEXT
  5
93F
  8
S
 10
-562.8332
 20
572.0
 30
0.0
 40
28.22152
  1
10
 41
0.750018
  0
LINE
  5
940
  8
S
 10
-727.8332
 20
732.0
 30
0.0
 11
-831.8332
 21
732.0
 31
0.0
  0
POLYLINE
  5
941
  8
S
 66
     1
 10
0.0
 20
0.0
 30
0.0
  0
VERTEX
  5
1848
  8
S
 10
-651.2143
 20
636.7355
 30
0.0
  0
VERTEX
  5
1849
  8
S
 10
-632.3332
 20
624.0
 30
0.0
  0
VERTEX
  5
184A
  8
S
 10
-642.317
 20
644.4698
 30
0.0
  0
SEQEND
  5
184B
  8
S
  0
LINE
  5
946
  8
S
 10
-727.8332
 20
732.0
 30
0.0
 11
-632.3332
 21
624.0
 31
0.0
  0
TEXT
  5
947
  8
S
 10
-735.290199
 20
766.8933
 30
0.0
 40
28.22152
  1
2-âË6
 50
180.0
 41
0.646537
 71
     4
  0
LINE
  5
948
  8
S
 10
-618.3332
 20
505.0
 30
0.0
 11
-618.3332
 21
547.0
 31
0.0
  0
LINE
  5
949
  8
S
 10
-638.3332
 20
505.0
 30
0.0
 11
-638.3332
 21
547.0
 31
0.0
  0
POLYLINE
  5
94A
  8
S
 66
     1
 10
0.0
 20
0.0
 30
0.0
  0
VERTEX
  5
184C
  8
S
 10
-596.3345
 20
532.8945
 30
0.0
  0
VERTEX
  5
184D
  8
S
 10
-618.3332
 20
527.0
 30
0.0
  0
VERTEX
  5
184E
  8
S
 10
-596.3345
 20
521.1055
 30
0.0
  0
SEQEND
  5
184F
  8
S
  0
LINE
  5
94F
  8
S
 10
-618.3332
 20
527.0
 30
0.0
 11
-520.5
 21
527.0
 31
0.0
  0
POLYLINE
  5
950
  8
S
 66
     1
 10
0.0
 20
0.0
 30
0.0
  0
VERTEX
  5
1850
  8
S
 10
-660.3319
 20
521.1055
 30
0.0
  0
VERTEX
  5
1851
  8
S
 10
-638.3332
 20
527.0
 30
0.0
  0
VERTEX
  5
1852
  8
S
 10
-660.3319
 20
532.8945
 30
0.0
  0
SEQEND
  5
1853
  8
S
  0
LINE
  5
955
  8
S
 10
-638.3332
 20
527.0
 30
0.0
 11
-708.3332
 21
527.0
 31
0.0
  0
LINE
  5
956
  8
S
 10
-638.3332
 20
527.0
 30
0.0
 11
-618.3332
 21
527.0
 31
0.0
  0
TEXT
  5
957
  8
S
 10
-562.8333
 20
528.0
 30
0.0
 40
28.22152
  1
20
 41
0.750018
  0
LINE
  5
958
  8
S
 10
-1468.3332
 20
376.5
 30
0.0
 11
-1468.3332
 21
-190.0
 31
0.0
  0
LINE
  5
959
  8
S
 10
-593.3332
 20
80.0
 30
0.0
 11
-593.3332
 21
-190.0
 31
0.0
  0
POLYLINE
  5
95A
  8
S
 66
     1
 10
0.0
 20
0.0
 30
0.0
  0
VERTEX
  5
1854
  8
S
 10
-1446.3345
 20
-164.1055
 30
0.0
  0
VERTEX
  5
1855
  8
S
 10
-1468.3332
 20
-170.0
 30
0.0
  0
VERTEX
  5
1856
  8
S
 10
-1446.3345
 20
-175.8945
 30
0.0
  0
SEQEND
  5
1857
  8
S
  0
POLYLINE
  5
95F
  8
S
 66
     1
 10
0.0
 20
0.0
 30
0.0
  0
VERTEX
  5
1858
  8
S
 10
-615.3319
 20
-175.8945
 30
0.0
  0
VERTEX
  5
1859
  8
S
 10
-593.3332
 20
-170.0
 30
0.0
  0
VERTEX
  5
185A
  8
S
 10
-615.3319
 20
-164.1055
 30
0.0
  0
SEQEND
  5
185B
  8
S
  0
LINE
  5
964
  8
S
 10
-1468.3332
 20
-170.0
 30
0.0
 11
-593.3332
 21
-170.0
 31
0.0
  0
TEXT
  5
965
  8
S
 10
-1060.8193
 20
-169.0
 30
0.0
 40
28.22152
  1
875
 41
0.708351
  0
ENDSEC
  0
EOF
