  0
SECTION
  2
HEADER
  9
$ACADVER
  1
AC1009
  9
$INSBASE
 10
0.0
 20
0.0
 30
0.0
  9
$EXTMIN
 10
-652.892
 20
-900.9143
 30
0.0
  9
$EXTMAX
 10
1372.108
 20
459.0857
 30
0.0
  9
$LIMMIN
 10
0.0
 20
0.0
  9
$LIMMAX
 10
0.0
 20
0.0
  9
$ORTHOMODE
 70
     0
  9
$REGENMODE
 70
     1
  9
$FILLMODE
 70
     1
  9
$QTEXTMODE
 70
     0
  9
$MIRRTEXT
 70
     1
  9
$DRAGMODE
 70
     2
  9
$LTSCALE
 40
5.0
  9
$OSMODE
 70
     0
  9
$ATTMODE
 70
     1
  9
$TEXTSIZE
 40
0.2
  9
$TRACEWID
 40
0.05
  9
$TEXTSTYLE
  7
STANDARD
  9
$CLAYER
  8
0
  9
$CELTYPE
  6
CONTINUOUS
  9
$CECOLOR
 62
   256
  9
$DIMSCALE
 40
1.0
  9
$DIMASZ
 40
0.18
  9
$DIMEXO
 40
0.0625
  9
$DIMDLI
 40
0.38
  9
$DIMRND
 40
0.0
  9
$DIMDLE
 40
0.0
  9
$DIMEXE
 40
0.18
  9
$DIMTP
 40
0.0
  9
$DIMTM
 40
0.0
  9
$DIMTXT
 40
0.18
  9
$DIMCEN
 40
0.09
  9
$DIMTSZ
 40
0.0
  9
$DIMTOL
 70
     0
  9
$DIMLIM
 70
     0
  9
$DIMTIH
 70
     1
  9
$DIMTOH
 70
     1
  9
$DIMSE1
 70
     0
  9
$DIMSE2
 70
     0
  9
$DIMTAD
 70
     0
  9
$DIMZIN
 70
     0
  9
$DIMBLK
  1

  9
$DIMASO
 70
     1
  9
$DIMSHO
 70
     1
  9
$DIMPOST
  1

  9
$DIMAPOST
  1

  9
$DIMALT
 70
     0
  9
$DIMALTD
 70
     2
  9
$DIMALTF
 40
25.4
  9
$DIMLFAC
 40
1.0
  9
$DIMTOFL
 70
     0
  9
$DIMTVP
 40
0.0
  9
$DIMTIX
 70
     0
  9
$DIMSOXD
 70
     0
  9
$DIMSAH
 70
     0
  9
$DIMBLK1
  1

  9
$DIMBLK2
  1

  9
$DIMSTYLE
  2
STANDARD
  9
$DIMCLRD
 70
     0
  9
$DIMCLRE
 70
     0
  9
$DIMCLRT
 70
     0
  9
$DIMTFAC
 40
1.0
  9
$DIMGAP
 40
0.09
  9
$LUNITS
 70
     2
  9
$LUPREC
 70
     4
  9
$SKETCHINC
 40
0.1
  9
$FILLETRAD
 40
0.0
  9
$AUNITS
 70
     0
  9
$AUPREC
 70
     0
  9
$MENU
  1
acad
  9
$ELEVATION
 40
0.0
  9
$PELEVATION
 40
0.0
  9
$THICKNESS
 40
0.0
  9
$LIMCHECK
 70
     0
  9
$BLIPMODE
 70
     1
  9
$CHAMFERA
 40
0.0
  9
$CHAMFERB
 40
0.0
  9
$SKPOLY
 70
     0
  9
$TDCREATE
 40
2452486.678994
  9
$TDUPDATE
 40
2452486.678994
  9
$TDINDWG
 40
0.0
  9
$TDUSRTIMER
 40
0.0
  9
$USRTIMER
 70
     1
  9
$ANGBASE
 50
0.0
  9
$ANGDIR
 70
     0
  9
$PDMODE
 70
     0
  9
$PDSIZE
 40
0.0
  9
$PLINEWID
 40
0.0
  9
$COORDS
 70
     0
  9
$SPLFRAME
 70
     0
  9
$SPLINETYPE
 70
     6
  9
$SPLINESEGS
 70
     8
  9
$ATTDIA
 70
     0
  9
$ATTREQ
 70
     1
  9
$HANDLING
 70
     1
  9
$HANDSEED
  5
A41
  9
$SURFTAB1
 70
     6
  9
$SURFTAB2
 70
     6
  9
$SURFTYPE
 70
     6
  9
$SURFU
 70
     6
  9
$SURFV
 70
     6
  9
$UCSNAME
  2

  9
$UCSORG
 10
0.0
 20
0.0
 30
0.0
  9
$UCSXDIR
 10
1.0
 20
0.0
 30
0.0
  9
$UCSYDIR
 10
0.0
 20
1.0
 30
0.0
  9
$PUCSNAME
  2

  9
$PUCSORG
 10
0.0
 20
0.0
 30
0.0
  9
$PUCSXDIR
 10
1.0
 20
0.0
 30
0.0
  9
$PUCSYDIR
 10
0.0
 20
1.0
 30
0.0
  9
$USERI1
 70
     0
  9
$USERI2
 70
     0
  9
$USERI3
 70
     0
  9
$USERI4
 70
     0
  9
$USERI5
 70
     0
  9
$USERR1
 40
0.0
  9
$USERR2
 40
0.0
  9
$USERR3
 40
0.0
  9
$USERR4
 40
0.0
  9
$USERR5
 40
0.0
  9
$WORLDVIEW
 70
     1
  9
$SHADEDGE
 70
     3
  9
$SHADEDIF
 70
    70
  9
$TILEMODE
 70
     1
  9
$MAXACTVP
 70
    16
  9
$PLIMCHECK
 70
     0
  9
$PEXTMIN
 10
1.000000E+020
 20
1.000000E+020
 30
1.000000E+020
  9
$PEXTMAX
 10
-1.000000E+020
 20
-1.000000E+020
 30
-1.000000E+020
  9
$PLIMMIN
 10
0.0
 20
0.0
  9
$PLIMMAX
 10
12.0
 20
9.0
  9
$UNITMODE
 70
     0
  9
$VISRETAIN
 70
     0
  9
$PLINEGEN
 70
     1
  9
$PSLTSCALE
 70
     0
  0
ENDSEC
  0
SECTION
  2
TABLES
  0
TABLE
  2
VPORT
 70
     2
  0
VPORT
  2
*ACTIVE
 70
     0
 10
0.0
 20
0.0
 11
1.0
 21
1.0
 12
359.617067
 22
-113.592639
 13
0.0
 23
0.0
 14
1.0
 24
1.0
 15
0.0
 25
0.0
 16
0.0
 26
0.0
 36
1.0
 17
0.0
 27
0.0
 37
0.0
 40
1590.227002
 41
1.51671
 42
50.0
 43
0.0
 44
0.0
 50
0.0
 51
0.0
 71
     0
 72
   100
 73
     1
 74
     1
 75
     0
 76
     0
 77
     0
 78
     0
  0
ENDTAB
  0
TABLE
  2
LTYPE
 70
    14
  0
LTYPE
  2
CONTINUOUS
 70
     0
  3
Solid line
 72
    65
 73
     0
 40
0.0
  0
LTYPE
  2
VECTORWORKS_DASH_01
 70
     0
  3
(unavailable)
 72
    65
 73
     2
 40
2.116537
 49
1.058075
 49
-1.058463
  0
LTYPE
  2
VECTORWORKS_DASH_02
 70
     0
  3
(unavailable)
 72
    65
 73
     2
 40
3.527692
 49
2.469229
 49
-1.058463
  0
LTYPE
  2
VECTORWORKS_DASH_03
 70
     0
  3
(unavailable)
 72
    65
 73
     2
 40
6.35
 49
5.291537
 49
-1.058463
  0
LTYPE
  2
VECTORWORKS_DASH_04
 70
     0
  3
(unavailable)
 72
    65
 73
     2
 40
7.760767
 49
6.702692
 49
-1.058075
  0
LTYPE
  2
VECTORWORKS_DASH_05
 70
     0
  3
(unavailable)
 72
    65
 73
     2
 40
1.058075
 49
0.352692
 49
-0.705383
  0
LTYPE
  2
VECTORWORKS_DASH_06
 70
     0
  3
(unavailable)
 72
    65
 73
     4
 40
16.580383
 49
1.411154
 49
-1.411154
 49
12.347308
 49
-1.410767
  0
LTYPE
  2
VECTORWORKS_DASH_07
 70
     0
  3
(unavailable)
 72
    65
 73
     6
 40
9.525
 49
3.175
 49
-1.058075
 49
3.175
 49
-1.058463
 49
0.352692
 49
-0.705771
  0
LTYPE
  2
VECTORWORKS_DASH_08
 70
     0
  3
(unavailable)
 72
    65
 73
     6
 40
6.35
 49
3.175
 49
-1.058075
 49
0.352692
 49
-0.705771
 49
0.352692
 49
-0.705771
  0
LTYPE
  2
VECTORWORKS_DASH_09
 70
     0
  3
(unavailable)
 72
    65
 73
     4
 40
25.4
 49
19.05
 49
-1.411154
 49
3.527692
 49
-1.411154
  0
LTYPE
  2
VECTORWORKS_DASH_10
 70
     0
  3
(unavailable)
 72
    65
 73
     6
 40
30.1625
 49
19.05
 49
-1.411154
 49
3.527692
 49
-1.411154
 49
3.175
 49
-1.5875
  0
LTYPE
  2
VECTORWORKS_DASH_11
 70
     0
  3
(unavailable)
 72
    65
 73
     4
 40
38.1
 49
2.116537
 49
-1.411154
 49
33.161154
 49
-1.411154
  0
LTYPE
  2
VECTORWORKS_DASH_12
 70
     0
  3
(unavailable)
 72
    65
 73
     4
 40
27.516537
 49
20.108463
 49
-2.116537
 49
3.175
 49
-2.116537
  0
LTYPE
  2
VECTORWORKS_DASH_13
 70
     0
  3
(unavailable)
 72
    65
 73
     4
 40
15.522308
 49
10.230383
 49
-1.764233
 49
1.763846
 49
-1.763846
  0
ENDTAB
  0
TABLE
  2
LAYER
 70
     8
  0
LAYER
  2
0
 70
     0
 62
     7
  6
CONTINUOUS
  0
LAYER
  2
OBJECT
 70
     0
 62
     2
  6
CONTINUOUS
  0
LAYER
  2
DIMENTION
 70
     0
 62
   212
  6
CONTINUOUS
  0
LAYER
  2
TEXT
 70
     0
 62
   221
  6
CONTINUOUS
  0
LAYER
  2
OUTLINE
 70
     0
 62
     3
  6
CONTINUOUS
  0
LAYER
  2
FRAME
 70
     0
 62
     7
  6
CONTINUOUS
  0
LAYER
  2
HIDDEN
 70
     0
 62
     5
  6
CONTINUOUS
  0
LAYER
  2
CENTER
 70
     0
 62
     1
  6
CONTINUOUS
  0
ENDTAB
  0
TABLE
  2
STYLE
 70
     1
  0
STYLE
  2
STANDARD
 70
     0
 40
0.0
 41
1.0
 50
0.0
 71
     0
 42
0.0
  3
txt
  4
BIGFONT.SHX
  0
ENDTAB
  0
TABLE
  2
VIEW
 70
     0
  0
ENDTAB
  0
TABLE
  2
UCS
 70
     0
  0
ENDTAB
  0
TABLE
  2
APPID
 70
     1
  0
APPID
  2
ACAD
 70
     0
  0
ENDTAB
  0
TABLE
  2
DIMSTYLE
 70
     1
  0
DIMSTYLE
  2
STANDARD
 70
     0
  3

  4

  5

  6

  7

 40
1.0
 41
0.18
 42
0.0625
 43
0.38
 44
0.18
 45
0.0
 46
0.0
 47
0.0
 48
0.0
140
0.18
141
0.09
142
0.0
143
25.4
144
1.0
145
0.0
146
1.0
147
0.09
 71
     0
 72
     0
 73
     1
 74
     1
 75
     0
 76
     0
 77
     0
 78
     0
170
     0
171
     2
172
     0
173
     0
174
     0
175
     0
176
     0
177
     0
178
     0
  0
ENDTAB
  0
ENDSEC
  0
SECTION
  2
BLOCKS
  0
BLOCK
  8
0
  2
$MODEL_SPACE
 70
     0
 10
0.0
 20
0.0
 30
0.0
  3
$MODEL_SPACE
  1

  0
ENDBLK
  5
6B4
  8
0
  0
BLOCK
 67
     1
  8
0
  2
$PAPER_SPACE
 70
     0
 10
0.0
 20
0.0
 30
0.0
  3
$PAPER_SPACE
  1

  0
ENDBLK
  5
6B2
 67
     1
  8
0
  0
BLOCK
  8
OBJECT
  2
*G0
 70
     1
 10
0.0
 20
0.0
 30
0.0
  3
*G0
  1

  0
POLYLINE
  5
4C
  8
OBJECT
  6
CONTINUOUS
 66
     1
 10
0.0
 20
0.0
 30
0.0
 70
   129
  0
VERTEX
  5
6BA
  8
OBJECT
  6
CONTINUOUS
 10
-303.508
 20
-424.6251
 30
0.0
  0
VERTEX
  5
6BB
  8
OBJECT
  6
CONTINUOUS
 10
-300.86734
 20
-424.6251
 30
0.0
 42
-0.364215
  0
VERTEX
  5
6BC
  8
OBJECT
  6
CONTINUOUS
 10
-296.92751
 20
-427.9339
 30
0.0
  0
VERTEX
  5
6BD
  8
OBJECT
  6
CONTINUOUS
 10
-288.08849
 20
-478.3163
 30
0.0
 42
0.364215
  0
VERTEX
  5
6BE
  8
OBJECT
  6
CONTINUOUS
 10
-284.14866
 20
-481.6251
 30
0.0
  0
VERTEX
  5
6BF
  8
OBJECT
  6
CONTINUOUS
 10
-247.86734
 20
-481.6251
 30
0.0
 42
0.364214
  0
VERTEX
  5
6C0
  8
OBJECT
  6
CONTINUOUS
 10
-243.92751
 20
-478.3163
 30
0.0
  0
VERTEX
  5
6C1
  8
OBJECT
  6
CONTINUOUS
 10
-235.08849
 20
-427.9339
 30
0.0
 42
-0.364214
  0
VERTEX
  5
6C2
  8
OBJECT
  6
CONTINUOUS
 10
-231.14866
 20
-424.6251
 30
0.0
  0
VERTEX
  5
6C3
  8
OBJECT
  6
CONTINUOUS
 10
-228.508
 20
-424.6251
 30
0.0
  0
VERTEX
  5
6C4
  8
OBJECT
  6
CONTINUOUS
 10
-228.508
 20
-421.6251
 30
0.0
  0
VERTEX
  5
6C5
  8
OBJECT
  6
CONTINUOUS
 10
-303.508
 20
-421.6251
 30
0.0
  0
VERTEX
  5
6C6
  8
OBJECT
  6
CONTINUOUS
 10
-303.508
 20
-424.6251
 30
0.0
  0
SEQEND
  5
6C7
  8
OBJECT
  6
CONTINUOUS
  0
LINE
  5
4D
  8
OBJECT
  6
CONTINUOUS
 10
-301.508
 20
-424.6251
 30
0.0
 11
-230.508
 21
-424.6251
 31
0.0
  0
POLYLINE
  5
4E
  8
OBJECT
  6
CONTINUOUS
 66
     1
 10
0.0
 20
0.0
 30
0.0
 70
   129
  0
VERTEX
  5
6C8
  8
OBJECT
  6
CONTINUOUS
 10
-283.508
 20
-481.6251
 30
0.0
  0
VERTEX
  5
6C9
  8
OBJECT
  6
CONTINUOUS
 10
-248.508
 20
-481.6251
 30
0.0
  0
VERTEX
  5
6CA
  8
OBJECT
  6
CONTINUOUS
 10
-248.508
 20
-521.6251
 30
0.0
 42
-0.414214
  0
VERTEX
  5
6CB
  8
OBJECT
  6
CONTINUOUS
 10
-253.508
 20
-526.6251
 30
0.0
  0
VERTEX
  5
6CC
  8
OBJECT
  6
CONTINUOUS
 10
-278.508
 20
-526.6251
 30
0.0
 42
-0.414214
  0
VERTEX
  5
6CD
  8
OBJECT
  6
CONTINUOUS
 10
-283.508
 20
-521.6251
 30
0.0
  0
VERTEX
  5
6CE
  8
OBJECT
  6
CONTINUOUS
 10
-283.508
 20
-481.6251
 30
0.0
  0
SEQEND
  5
6CF
  8
OBJECT
  6
CONTINUOUS
  0
LINE
  5
4F
  8
OBJECT
  6
CONTINUOUS
 10
-257.508
 20
-524.6251
 30
0.0
 11
-257.508
 21
-507.6251
 31
0.0
  0
LINE
  5
50
  8
OBJECT
  6
CONTINUOUS
 10
-275.008
 20
-524.6251
 30
0.0
 11
-275.008
 21
-507.6251
 31
0.0
  0
POLYLINE
  5
51
  8
OBJECT
  6
CONTINUOUS
 66
     1
 10
0.0
 20
0.0
 30
0.0
 70
   128
210
0.0
220
0.0
230
-1.0
  0
VERTEX
  5
6D0
  8
OBJECT
  6
CONTINUOUS
 10
282.508
 20
-504.6251
 30
0.0
  0
VERTEX
  5
6D1
  8
OBJECT
  6
CONTINUOUS
 10
277.539252
 20
-505.937598
 30
0.0
  0
VERTEX
  5
6D2
  8
OBJECT
  6
CONTINUOUS
 10
275.681829
 20
-507.144631
 30
0.0
  0
VERTEX
  5
6D3
  8
OBJECT
  6
CONTINUOUS
 10
272.765813
 20
-506.421974
 30
0.0
  0
VERTEX
  5
6D4
  8
OBJECT
  6
CONTINUOUS
 10
266.133001
 20
-504.875098
 30
0.0
  0
VERTEX
  5
6D5
  8
OBJECT
  6
CONTINUOUS
 10
259.640813
 20
-506.421974
 30
0.0
  0
VERTEX
  5
6D6
  8
OBJECT
  6
CONTINUOUS
 10
257.011906
 20
-507.144631
 30
0.0
  0
VERTEX
  5
6D7
  8
OBJECT
  6
CONTINUOUS
 10
255.570499
 20
-505.937598
 30
0.0
  0
VERTEX
  5
6D8
  8
OBJECT
  6
CONTINUOUS
 10
250.508
 20
-504.6251
 30
0.0
  0
SEQEND
  5
6D9
  8
OBJECT
  6
CONTINUOUS
  0
ENDBLK
  5
52
  8
OBJECT
  0
BLOCK
  8
OBJECT
  2
*G1
 70
     1
 10
0.0
 20
0.0
 30
0.0
  3
*G1
  1

  0
POLYLINE
  5
54
  8
OBJECT
  6
CONTINUOUS
 66
     1
 10
0.0
 20
0.0
 30
0.0
 70
   129
  0
VERTEX
  5
6DA
  8
OBJECT
  6
CONTINUOUS
 10
-491.508
 20
-424.6251
 30
0.0
  0
VERTEX
  5
6DB
  8
OBJECT
  6
CONTINUOUS
 10
-488.86734
 20
-424.6251
 30
0.0
 42
-0.364215
  0
VERTEX
  5
6DC
  8
OBJECT
  6
CONTINUOUS
 10
-484.92751
 20
-427.9339
 30
0.0
  0
VERTEX
  5
6DD
  8
OBJECT
  6
CONTINUOUS
 10
-476.08849
 20
-478.3163
 30
0.0
 42
0.364215
  0
VERTEX
  5
6DE
  8
OBJECT
  6
CONTINUOUS
 10
-472.14866
 20
-481.6251
 30
0.0
  0
VERTEX
  5
6DF
  8
OBJECT
  6
CONTINUOUS
 10
-435.86734
 20
-481.6251
 30
0.0
 42
0.364214
  0
VERTEX
  5
6E0
  8
OBJECT
  6
CONTINUOUS
 10
-431.92751
 20
-478.3163
 30
0.0
  0
VERTEX
  5
6E1
  8
OBJECT
  6
CONTINUOUS
 10
-423.08849
 20
-427.9339
 30
0.0
 42
-0.364214
  0
VERTEX
  5
6E2
  8
OBJECT
  6
CONTINUOUS
 10
-419.14866
 20
-424.6251
 30
0.0
  0
VERTEX
  5
6E3
  8
OBJECT
  6
CONTINUOUS
 10
-416.508
 20
-424.6251
 30
0.0
  0
VERTEX
  5
6E4
  8
OBJECT
  6
CONTINUOUS
 10
-416.508
 20
-421.6251
 30
0.0
  0
VERTEX
  5
6E5
  8
OBJECT
  6
CONTINUOUS
 10
-491.508
 20
-421.6251
 30
0.0
  0
VERTEX
  5
6E6
  8
OBJECT
  6
CONTINUOUS
 10
-491.508
 20
-424.6251
 30
0.0
  0
SEQEND
  5
6E7
  8
OBJECT
  6
CONTINUOUS
  0
LINE
  5
55
  8
OBJECT
  6
CONTINUOUS
 10
-489.508
 20
-424.6251
 30
0.0
 11
-418.508
 21
-424.6251
 31
0.0
  0
POLYLINE
  5
56
  8
OBJECT
  6
CONTINUOUS
 66
     1
 10
0.0
 20
0.0
 30
0.0
 70
   129
  0
VERTEX
  5
6E8
  8
OBJECT
  6
CONTINUOUS
 10
-471.508
 20
-481.6251
 30
0.0
  0
VERTEX
  5
6E9
  8
OBJECT
  6
CONTINUOUS
 10
-436.508
 20
-481.6251
 30
0.0
  0
VERTEX
  5
6EA
  8
OBJECT
  6
CONTINUOUS
 10
-436.508
 20
-521.6251
 30
0.0
 42
-0.414214
  0
VERTEX
  5
6EB
  8
OBJECT
  6
CONTINUOUS
 10
-441.508
 20
-526.6251
 30
0.0
  0
VERTEX
  5
6EC
  8
OBJECT
  6
CONTINUOUS
 10
-466.508
 20
-526.6251
 30
0.0
 42
-0.414214
  0
VERTEX
  5
6ED
  8
OBJECT
  6
CONTINUOUS
 10
-471.508
 20
-521.6251
 30
0.0
  0
VERTEX
  5
6EE
  8
OBJECT
  6
CONTINUOUS
 10
-471.508
 20
-481.6251
 30
0.0
  0
SEQEND
  5
6EF
  8
OBJECT
  6
CONTINUOUS
  0
LINE
  5
57
  8
OBJECT
  6
CONTINUOUS
 10
-445.508
 20
-524.6251
 30
0.0
 11
-445.508
 21
-507.6251
 31
0.0
  0
LINE
  5
58
  8
OBJECT
  6
CONTINUOUS
 10
-463.008
 20
-524.6251
 30
0.0
 11
-463.008
 21
-507.6251
 31
0.0
  0
POLYLINE
  5
59
  8
OBJECT
  6
CONTINUOUS
 66
     1
 10
0.0
 20
0.0
 30
0.0
 70
   128
210
0.0
220
0.0
230
-1.0
  0
VERTEX
  5
6F0
  8
OBJECT
  6
CONTINUOUS
 10
470.508
 20
-504.6251
 30
0.0
  0
VERTEX
  5
6F1
  8
OBJECT
  6
CONTINUOUS
 10
465.539252
 20
-505.937598
 30
0.0
  0
VERTEX
  5
6F2
  8
OBJECT
  6
CONTINUOUS
 10
463.681829
 20
-507.144631
 30
0.0
  0
VERTEX
  5
6F3
  8
OBJECT
  6
CONTINUOUS
 10
460.765813
 20
-506.421974
 30
0.0
  0
VERTEX
  5
6F4
  8
OBJECT
  6
CONTINUOUS
 10
454.133001
 20
-504.875098
 30
0.0
  0
VERTEX
  5
6F5
  8
OBJECT
  6
CONTINUOUS
 10
447.640813
 20
-506.421974
 30
0.0
  0
VERTEX
  5
6F6
  8
OBJECT
  6
CONTINUOUS
 10
445.011906
 20
-507.144631
 30
0.0
  0
VERTEX
  5
6F7
  8
OBJECT
  6
CONTINUOUS
 10
443.570499
 20
-505.937598
 30
0.0
  0
VERTEX
  5
6F8
  8
OBJECT
  6
CONTINUOUS
 10
438.508
 20
-504.6251
 30
0.0
  0
SEQEND
  5
6F9
  8
OBJECT
  6
CONTINUOUS
  0
ENDBLK
  5
5A
  8
OBJECT
  0
BLOCK
  8
OBJECT
  2
*G2
 70
     1
 10
0.0
 20
0.0
 30
0.0
  3
*G2
  1

  0
POLYLINE
  5
5C
  8
OBJECT
  6
CONTINUOUS
 66
     1
 10
0.0
 20
0.0
 30
0.0
 70
   129
  0
VERTEX
  5
6FA
  8
OBJECT
  6
CONTINUOUS
 10
637.492
 20
-424.6251
 30
0.0
  0
VERTEX
  5
6FB
  8
OBJECT
  6
CONTINUOUS
 10
640.13266
 20
-424.6251
 30
0.0
 42
-0.364215
  0
VERTEX
  5
6FC
  8
OBJECT
  6
CONTINUOUS
 10
644.07249
 20
-427.9339
 30
0.0
  0
VERTEX
  5
6FD
  8
OBJECT
  6
CONTINUOUS
 10
652.91151
 20
-478.3163
 30
0.0
 42
0.364215
  0
VERTEX
  5
6FE
  8
OBJECT
  6
CONTINUOUS
 10
656.85134
 20
-481.6251
 30
0.0
  0
VERTEX
  5
6FF
  8
OBJECT
  6
CONTINUOUS
 10
693.13266
 20
-481.6251
 30
0.0
 42
0.364214
  0
VERTEX
  5
700
  8
OBJECT
  6
CONTINUOUS
 10
697.07249
 20
-478.3163
 30
0.0
  0
VERTEX
  5
701
  8
OBJECT
  6
CONTINUOUS
 10
705.91151
 20
-427.9339
 30
0.0
 42
-0.364214
  0
VERTEX
  5
702
  8
OBJECT
  6
CONTINUOUS
 10
709.85134
 20
-424.6251
 30
0.0
  0
VERTEX
  5
703
  8
OBJECT
  6
CONTINUOUS
 10
712.492
 20
-424.6251
 30
0.0
  0
VERTEX
  5
704
  8
OBJECT
  6
CONTINUOUS
 10
712.492
 20
-421.6251
 30
0.0
  0
VERTEX
  5
705
  8
OBJECT
  6
CONTINUOUS
 10
637.492
 20
-421.6251
 30
0.0
  0
VERTEX
  5
706
  8
OBJECT
  6
CONTINUOUS
 10
637.492
 20
-424.6251
 30
0.0
  0
SEQEND
  5
707
  8
OBJECT
  6
CONTINUOUS
  0
LINE
  5
5D
  8
OBJECT
  6
CONTINUOUS
 10
639.492
 20
-424.6251
 30
0.0
 11
710.492
 21
-424.6251
 31
0.0
  0
POLYLINE
  5
5E
  8
OBJECT
  6
CONTINUOUS
 66
     1
 10
0.0
 20
0.0
 30
0.0
 70
   129
  0
VERTEX
  5
708
  8
OBJECT
  6
CONTINUOUS
 10
657.492
 20
-481.6251
 30
0.0
  0
VERTEX
  5
709
  8
OBJECT
  6
CONTINUOUS
 10
692.492
 20
-481.6251
 30
0.0
  0
VERTEX
  5
70A
  8
OBJECT
  6
CONTINUOUS
 10
692.492
 20
-521.6251
 30
0.0
 42
-0.414214
  0
VERTEX
  5
70B
  8
OBJECT
  6
CONTINUOUS
 10
687.492
 20
-526.6251
 30
0.0
  0
VERTEX
  5
70C
  8
OBJECT
  6
CONTINUOUS
 10
662.492
 20
-526.6251
 30
0.0
 42
-0.414214
  0
VERTEX
  5
70D
  8
OBJECT
  6
CONTINUOUS
 10
657.492
 20
-521.6251
 30
0.0
  0
VERTEX
  5
70E
  8
OBJECT
  6
CONTINUOUS
 10
657.492
 20
-481.6251
 30
0.0
  0
SEQEND
  5
70F
  8
OBJECT
  6
CONTINUOUS
  0
LINE
  5
5F
  8
OBJECT
  6
CONTINUOUS
 10
683.492
 20
-524.6251
 30
0.0
 11
683.492
 21
-507.6251
 31
0.0
  0
LINE
  5
60
  8
OBJECT
  6
CONTINUOUS
 10
665.992
 20
-524.6251
 30
0.0
 11
665.992
 21
-507.6251
 31
0.0
  0
POLYLINE
  5
61
  8
OBJECT
  6
CONTINUOUS
 66
     1
 10
0.0
 20
0.0
 30
0.0
 70
   128
210
0.0
220
0.0
230
-1.0
  0
VERTEX
  5
710
  8
OBJECT
  6
CONTINUOUS
 10
-658.492
 20
-504.6251
 30
0.0
  0
VERTEX
  5
711
  8
OBJECT
  6
CONTINUOUS
 10
-663.460748
 20
-505.937598
 30
0.0
  0
VERTEX
  5
712
  8
OBJECT
  6
CONTINUOUS
 10
-665.318171
 20
-507.144631
 30
0.0
  0
VERTEX
  5
713
  8
OBJECT
  6
CONTINUOUS
 10
-668.234187
 20
-506.421974
 30
0.0
  0
VERTEX
  5
714
  8
OBJECT
  6
CONTINUOUS
 10
-674.866999
 20
-504.875098
 30
0.0
  0
VERTEX
  5
715
  8
OBJECT
  6
CONTINUOUS
 10
-681.359187
 20
-506.421974
 30
0.0
  0
VERTEX
  5
716
  8
OBJECT
  6
CONTINUOUS
 10
-683.988094
 20
-507.144631
 30
0.0
  0
VERTEX
  5
717
  8
OBJECT
  6
CONTINUOUS
 10
-685.429501
 20
-505.937598
 30
0.0
  0
VERTEX
  5
718
  8
OBJECT
  6
CONTINUOUS
 10
-690.492
 20
-504.6251
 30
0.0
  0
SEQEND
  5
719
  8
OBJECT
  6
CONTINUOUS
  0
ENDBLK
  5
62
  8
OBJECT
  0
BLOCK
  8
OBJECT
  2
*G3
 70
     1
 10
0.0
 20
0.0
 30
0.0
  3
*G3
  1

  0
POLYLINE
  5
64
  8
OBJECT
  6
CONTINUOUS
 66
     1
 10
0.0
 20
0.0
 30
0.0
 70
   129
  0
VERTEX
  5
71A
  8
OBJECT
  6
CONTINUOUS
 10
337.492
 20
-424.6251
 30
0.0
  0
VERTEX
  5
71B
  8
OBJECT
  6
CONTINUOUS
 10
340.13266
 20
-424.6251
 30
0.0
 42
-0.364215
  0
VERTEX
  5
71C
  8
OBJECT
  6
CONTINUOUS
 10
344.07249
 20
-427.9339
 30
0.0
  0
VERTEX
  5
71D
  8
OBJECT
  6
CONTINUOUS
 10
352.91151
 20
-478.3163
 30
0.0
 42
0.364215
  0
VERTEX
  5
71E
  8
OBJECT
  6
CONTINUOUS
 10
356.85134
 20
-481.6251
 30
0.0
  0
VERTEX
  5
71F
  8
OBJECT
  6
CONTINUOUS
 10
393.13266
 20
-481.6251
 30
0.0
 42
0.364214
  0
VERTEX
  5
720
  8
OBJECT
  6
CONTINUOUS
 10
397.07249
 20
-478.3163
 30
0.0
  0
VERTEX
  5
721
  8
OBJECT
  6
CONTINUOUS
 10
405.91151
 20
-427.9339
 30
0.0
 42
-0.364214
  0
VERTEX
  5
722
  8
OBJECT
  6
CONTINUOUS
 10
409.85134
 20
-424.6251
 30
0.0
  0
VERTEX
  5
723
  8
OBJECT
  6
CONTINUOUS
 10
412.492
 20
-424.6251
 30
0.0
  0
VERTEX
  5
724
  8
OBJECT
  6
CONTINUOUS
 10
412.492
 20
-421.6251
 30
0.0
  0
VERTEX
  5
725
  8
OBJECT
  6
CONTINUOUS
 10
337.492
 20
-421.6251
 30
0.0
  0
VERTEX
  5
726
  8
OBJECT
  6
CONTINUOUS
 10
337.492
 20
-424.6251
 30
0.0
  0
SEQEND
  5
727
  8
OBJECT
  6
CONTINUOUS
  0
LINE
  5
65
  8
OBJECT
  6
CONTINUOUS
 10
339.492
 20
-424.6251
 30
0.0
 11
410.492
 21
-424.6251
 31
0.0
  0
POLYLINE
  5
66
  8
OBJECT
  6
CONTINUOUS
 66
     1
 10
0.0
 20
0.0
 30
0.0
 70
   129
  0
VERTEX
  5
728
  8
OBJECT
  6
CONTINUOUS
 10
357.492
 20
-481.6251
 30
0.0
  0
VERTEX
  5
729
  8
OBJECT
  6
CONTINUOUS
 10
392.492
 20
-481.6251
 30
0.0
  0
VERTEX
  5
72A
  8
OBJECT
  6
CONTINUOUS
 10
392.492
 20
-521.6251
 30
0.0
 42
-0.414214
  0
VERTEX
  5
72B
  8
OBJECT
  6
CONTINUOUS
 10
387.492
 20
-526.6251
 30
0.0
  0
VERTEX
  5
72C
  8
OBJECT
  6
CONTINUOUS
 10
362.492
 20
-526.6251
 30
0.0
 42
-0.414214
  0
VERTEX
  5
72D
  8
OBJECT
  6
CONTINUOUS
 10
357.492
 20
-521.6251
 30
0.0
  0
VERTEX
  5
72E
  8
OBJECT
  6
CONTINUOUS
 10
357.492
 20
-481.6251
 30
0.0
  0
SEQEND
  5
72F
  8
OBJECT
  6
CONTINUOUS
  0
LINE
  5
67
  8
OBJECT
  6
CONTINUOUS
 10
383.492
 20
-524.6251
 30
0.0
 11
383.492
 21
-507.6251
 31
0.0
  0
LINE
  5
68
  8
OBJECT
  6
CONTINUOUS
 10
365.992
 20
-524.6251
 30
0.0
 11
365.992
 21
-507.6251
 31
0.0
  0
POLYLINE
  5
69
  8
OBJECT
  6
CONTINUOUS
 66
     1
 10
0.0
 20
0.0
 30
0.0
 70
   128
210
0.0
220
0.0
230
-1.0
  0
VERTEX
  5
730
  8
OBJECT
  6
CONTINUOUS
 10
-358.492
 20
-504.6251
 30
0.0
  0
VERTEX
  5
731
  8
OBJECT
  6
CONTINUOUS
 10
-363.460748
 20
-505.937598
 30
0.0
  0
VERTEX
  5
732
  8
OBJECT
  6
CONTINUOUS
 10
-365.318171
 20
-507.144631
 30
0.0
  0
VERTEX
  5
733
  8
OBJECT
  6
CONTINUOUS
 10
-368.234187
 20
-506.421974
 30
0.0
  0
VERTEX
  5
734
  8
OBJECT
  6
CONTINUOUS
 10
-374.866999
 20
-504.875098
 30
0.0
  0
VERTEX
  5
735
  8
OBJECT
  6
CONTINUOUS
 10
-381.359187
 20
-506.421974
 30
0.0
  0
VERTEX
  5
736
  8
OBJECT
  6
CONTINUOUS
 10
-383.988094
 20
-507.144631
 30
0.0
  0
VERTEX
  5
737
  8
OBJECT
  6
CONTINUOUS
 10
-385.429501
 20
-505.937598
 30
0.0
  0
VERTEX
  5
738
  8
OBJECT
  6
CONTINUOUS
 10
-390.492
 20
-504.6251
 30
0.0
  0
SEQEND
  5
739
  8
OBJECT
  6
CONTINUOUS
  0
ENDBLK
  5
6A
  8
OBJECT
  0
BLOCK
  8
HIDDEN
  2
*G4
 70
     1
 10
0.0
 20
0.0
 30
0.0
  3
*G4
  1

  0
LINE
  5
6C
  8
HIDDEN
  6
VECTORWORKS_DASH_02
 10
397.8412
 20
63.0257
 30
0.0
 11
382.992
 21
77.8749
 31
0.0
  0
LINE
  5
6D
  8
HIDDEN
  6
VECTORWORKS_DASH_02
 10
397.8412
 20
63.0257
 30
0.0
 11
409.8412
 21
63.0257
 31
0.0
  0
LINE
  5
6E
  8
HIDDEN
  6
VECTORWORKS_DASH_02
 10
401.155
 20
71.0257
 30
0.0
 11
386.3057
 21
85.8749
 31
0.0
  0
LINE
  5
6F
  8
HIDDEN
  6
VECTORWORKS_DASH_02
 10
409.8412
 20
63.0257
 30
0.0
 11
409.8412
 21
71.0257
 31
0.0
  0
LINE
  5
70
  8
HIDDEN
  6
VECTORWORKS_DASH_02
 10
382.992
 20
85.8749
 30
0.0
 11
386.3057
 21
85.8749
 31
0.0
  0
LINE
  5
71
  8
HIDDEN
  6
VECTORWORKS_DASH_02
 10
401.155
 20
71.0257
 30
0.0
 11
401.8412
 21
71.0257
 31
0.0
  0
LINE
  5
72
  8
HIDDEN
  6
VECTORWORKS_DASH_02
 10
409.8412
 20
63.0257
 30
0.0
 11
409.8412
 21
105.0257
 31
0.0
  0
LINE
  5
73
  8
HIDDEN
  6
VECTORWORKS_DASH_02
 10
401.8412
 20
71.0257
 30
0.0
 11
401.8412
 21
105.0257
 31
0.0
  0
POLYLINE
  5
74
  8
HIDDEN
  6
VECTORWORKS_DASH_02
 66
     1
 10
0.0
 20
0.0
 30
0.0
 70
     1
  0
VERTEX
  5
73A
  8
HIDDEN
  6
VECTORWORKS_DASH_02
 10
438.4832
 20
82.9858
 30
0.0
  0
VERTEX
  5
73B
  8
HIDDEN
  6
VECTORWORKS_DASH_02
 10
433.9892
 20
85.1777
 30
0.0
  0
VERTEX
  5
73C
  8
HIDDEN
  6
VECTORWORKS_DASH_02
 10
438.8113
 20
95.0644
 30
0.0
  0
VERTEX
  5
73D
  8
HIDDEN
  6
VECTORWORKS_DASH_02
 10
443.3052
 20
92.8726
 30
0.0
  0
SEQEND
  5
73E
  8
HIDDEN
  6
VECTORWORKS_DASH_02
  0
POLYLINE
  5
7A
  8
HIDDEN
  6
VECTORWORKS_DASH_02
 66
     1
 10
0.0
 20
0.0
 30
0.0
 70
     1
  0
VERTEX
  5
73F
  8
HIDDEN
  6
VECTORWORKS_DASH_02
 10
517.0946
 20
47.9823
 30
0.0
  0
VERTEX
  5
740
  8
HIDDEN
  6
VECTORWORKS_DASH_02
 10
439.7983
 20
85.6822
 30
0.0
  0
VERTEX
  5
741
  8
HIDDEN
  6
VECTORWORKS_DASH_02
 10
441.9901
 20
90.1762
 30
0.0
  0
VERTEX
  5
742
  8
HIDDEN
  6
VECTORWORKS_DASH_02
 10
519.2864
 20
52.4763
 30
0.0
  0
SEQEND
  5
743
  8
HIDDEN
  6
VECTORWORKS_DASH_02
  0
POLYLINE
  5
80
  8
HIDDEN
  6
VECTORWORKS_DASH_02
 66
     1
 10
0.0
 20
0.0
 30
0.0
 70
     1
  0
VERTEX
  5
744
  8
HIDDEN
  6
VECTORWORKS_DASH_02
 10
520.2734
 20
43.0941
 30
0.0
  0
VERTEX
  5
745
  8
HIDDEN
  6
VECTORWORKS_DASH_02
 10
515.7794
 20
45.2859
 30
0.0
  0
VERTEX
  5
746
  8
HIDDEN
  6
VECTORWORKS_DASH_02
 10
520.6015
 20
55.1726
 30
0.0
  0
VERTEX
  5
747
  8
HIDDEN
  6
VECTORWORKS_DASH_02
 10
525.0955
 20
52.9808
 30
0.0
  0
SEQEND
  5
748
  8
HIDDEN
  6
VECTORWORKS_DASH_02
  0
POLYLINE
  5
86
  8
HIDDEN
  6
VECTORWORKS_DASH_02
 66
     1
 10
0.0
 20
0.0
 30
0.0
 70
   129
  0
VERTEX
  5
749
  8
HIDDEN
  6
VECTORWORKS_DASH_02
 10
635.6
 20
17.3514
 30
0.0
 42
-0.414214
  0
VERTEX
  5
74A
  8
HIDDEN
  6
VECTORWORKS_DASH_02
 10
585.6
 20
-32.6486
 30
0.0
 42
-0.414214
  0
VERTEX
  5
74B
  8
HIDDEN
  6
VECTORWORKS_DASH_02
 10
535.6
 20
17.3514
 30
0.0
  0
VERTEX
  5
74C
  8
HIDDEN
  6
VECTORWORKS_DASH_02
 10
535.6
 20
17.3514
 30
0.0
 42
-0.065762
  0
VERTEX
  5
74D
  8
HIDDEN
  6
VECTORWORKS_DASH_02
 10
537.3147
 20
30.3321
 30
0.0
  0
VERTEX
  5
74E
  8
HIDDEN
  6
VECTORWORKS_DASH_02
 10
518.5199
 20
39.4989
 30
0.0
  0
VERTEX
  5
74F
  8
HIDDEN
  6
VECTORWORKS_DASH_02
 10
526.849
 20
56.576
 30
0.0
  0
VERTEX
  5
750
  8
HIDDEN
  6
VECTORWORKS_DASH_02
 10
545.6443
 20
47.4089
 30
0.0
  0
VERTEX
  5
751
  8
HIDDEN
  6
VECTORWORKS_DASH_02
 10
545.6443
 20
47.4089
 30
0.0
 42
-0.235694
  0
VERTEX
  5
752
  8
HIDDEN
  6
VECTORWORKS_DASH_02
 10
585.6
 20
67.3514
 30
0.0
  0
VERTEX
  5
753
  8
HIDDEN
  6
VECTORWORKS_DASH_02
 10
585.6
 20
67.3514
 30
0.0
 42
-0.414214
  0
VERTEX
  5
754
  8
HIDDEN
  6
VECTORWORKS_DASH_02
 10
635.6
 20
17.3514
 30
0.0
 42
-0.414214
  0
SEQEND
  5
755
  8
HIDDEN
  6
VECTORWORKS_DASH_02
  0
ARC
  5
87
  8
HIDDEN
  6
VECTORWORKS_DASH_02
 10
405.8412
 20
105.0183
 30
0.0
 40
4.00001
 50
0.105997
 51
179.894003
  0
POLYLINE
  5
88
  8
HIDDEN
  6
VECTORWORKS_DASH_02
 66
     1
 10
0.0
 20
0.0
 30
0.0
 70
   128
  0
VERTEX
  5
756
  8
HIDDEN
  6
VECTORWORKS_DASH_02
 10
397.1648
 20
114.915
 30
0.0
 42
0.265886
  0
VERTEX
  5
757
  8
HIDDEN
  6
VECTORWORKS_DASH_02
 10
391.992
 20
117.8749
 30
0.0
  0
VERTEX
  5
758
  8
HIDDEN
  6
VECTORWORKS_DASH_02
 10
382.992
 20
117.8749
 30
0.0
  0
VERTEX
  5
759
  8
HIDDEN
  6
VECTORWORKS_DASH_02
 10
342.992
 20
117.8749
 30
0.0
  0
VERTEX
  5
75A
  8
HIDDEN
  6
VECTORWORKS_DASH_02
 10
342.992
 20
124.8749
 30
0.0
  0
VERTEX
  5
75B
  8
HIDDEN
  6
VECTORWORKS_DASH_02
 10
339.992
 20
124.8749
 30
0.0
  0
VERTEX
  5
75C
  8
HIDDEN
  6
VECTORWORKS_DASH_02
 10
339.992
 20
91.8749
 30
0.0
  0
VERTEX
  5
75D
  8
HIDDEN
  6
VECTORWORKS_DASH_02
 10
342.992
 20
91.8749
 30
0.0
  0
VERTEX
  5
75E
  8
HIDDEN
  6
VECTORWORKS_DASH_02
 10
357.992
 20
91.8749
 30
0.0
  0
VERTEX
  5
75F
  8
HIDDEN
  6
VECTORWORKS_DASH_02
 10
357.992
 20
90.8749
 30
0.0
  0
VERTEX
  5
760
  8
HIDDEN
  6
VECTORWORKS_DASH_02
 10
351.7264
 20
83.3562
 30
0.0
  0
VERTEX
  5
761
  8
HIDDEN
  6
VECTORWORKS_DASH_02
 10
351.7264
 20
83.3562
 30
0.0
  0
VERTEX
  5
762
  8
HIDDEN
  6
VECTORWORKS_DASH_02
 10
351.72638
 20
83.35618
 30
0.0
 42
0.362049
  0
VERTEX
  5
763
  8
HIDDEN
  6
VECTORWORKS_DASH_02
 10
351.72638
 20
74.39362
 30
0.0
  0
VERTEX
  5
764
  8
HIDDEN
  6
VECTORWORKS_DASH_02
 10
351.7264
 20
74.3936
 30
0.0
  0
VERTEX
  5
765
  8
HIDDEN
  6
VECTORWORKS_DASH_02
 10
357.992
 20
66.8749
 30
0.0
  0
VERTEX
  5
766
  8
HIDDEN
  6
VECTORWORKS_DASH_02
 10
357.992
 20
65.8749
 30
0.0
  0
VERTEX
  5
767
  8
HIDDEN
  6
VECTORWORKS_DASH_02
 10
382.992
 20
65.8749
 30
0.0
  0
VERTEX
  5
768
  8
HIDDEN
  6
VECTORWORKS_DASH_02
 10
382.992
 20
105.8749
 30
0.0
  0
VERTEX
  5
769
  8
HIDDEN
  6
VECTORWORKS_DASH_02
 10
391.992
 20
105.8749
 30
0.0
  0
VERTEX
  5
76A
  8
HIDDEN
  6
VECTORWORKS_DASH_02
 10
391.992
 20
105.8749
 30
0.0
  0
VERTEX
  5
76B
  8
HIDDEN
  6
VECTORWORKS_DASH_02
 10
391.99212
 20
105.8749
 30
0.0
 42
0.032978
  0
VERTEX
  5
76C
  8
HIDDEN
  6
VECTORWORKS_DASH_02
 10
392.78104
 20
105.92699
 30
0.0
  0
VERTEX
  5
76D
  8
HIDDEN
  6
VECTORWORKS_DASH_02
 10
392.7811
 20
105.927
 30
0.0
  0
SEQEND
  5
76E
  8
HIDDEN
  6
VECTORWORKS_DASH_02
  0
ARC
  5
89
  8
HIDDEN
  6
VECTORWORKS_DASH_02
 10
405.8412
 20
105.0255
 30
0.0
 40
7.49981
 50
194.945492
 51
237.768941
  0
POLYLINE
  5
8A
  8
HIDDEN
  6
VECTORWORKS_DASH_02
 66
     1
 10
0.0
 20
0.0
 30
0.0
 70
   128
  0
VERTEX
  5
76F
  8
HIDDEN
  6
VECTORWORKS_DASH_02
 10
409.8412
 20
96.3991
 30
0.0
  0
VERTEX
  5
770
  8
HIDDEN
  6
VECTORWORKS_DASH_02
 10
433.77
 20
84.7283
 30
0.0
  0
VERTEX
  5
771
  8
HIDDEN
  6
VECTORWORKS_DASH_02
 10
439.0305
 20
95.5138
 30
0.0
  0
VERTEX
  5
772
  8
HIDDEN
  6
VECTORWORKS_DASH_02
 10
412.5158
 20
108.4459
 30
0.0
  0
VERTEX
  5
773
  8
HIDDEN
  6
VECTORWORKS_DASH_02
 10
412.5158
 20
108.4459
 30
0.0
  0
VERTEX
  5
774
  8
HIDDEN
  6
VECTORWORKS_DASH_02
 10
412.5158
 20
108.4459
 30
0.0
 42
0.28142
  0
VERTEX
  5
775
  8
HIDDEN
  6
VECTORWORKS_DASH_02
 10
405.8412
 20
112.5257
 30
0.0
  0
VERTEX
  5
776
  8
HIDDEN
  6
VECTORWORKS_DASH_02
 10
405.8412
 20
112.5257
 30
0.0
  0
VERTEX
  5
777
  8
HIDDEN
  6
VECTORWORKS_DASH_02
 10
405.8412
 20
112.5257
 30
0.0
 42
0.093282
  0
VERTEX
  5
778
  8
HIDDEN
  6
VECTORWORKS_DASH_02
 10
403.1154
 20
112.0127
 30
0.0
  0
VERTEX
  5
779
  8
HIDDEN
  6
VECTORWORKS_DASH_02
 10
394.1839
 20
116.3689
 30
0.0
  0
VERTEX
  5
77A
  8
HIDDEN
  6
VECTORWORKS_DASH_02
 10
394.1839
 20
116.3689
 30
0.0
  0
VERTEX
  5
77B
  8
HIDDEN
  6
VECTORWORKS_DASH_02
 10
394.1839
 20
116.3689
 30
0.0
 42
0.156144
  0
VERTEX
  5
77C
  8
HIDDEN
  6
VECTORWORKS_DASH_02
 10
391.1668
 20
116.8063
 30
0.0
  0
VERTEX
  5
77D
  8
HIDDEN
  6
VECTORWORKS_DASH_02
 10
391.1668
 20
116.8063
 30
0.0
  0
VERTEX
  5
77E
  8
HIDDEN
  6
VECTORWORKS_DASH_02
 10
391.1668
 20
116.8063
 30
0.0
 42
0.156156
  0
VERTEX
  5
77F
  8
HIDDEN
  6
VECTORWORKS_DASH_02
 10
388.4565
 20
115.4105
 30
0.0
  0
VERTEX
  5
780
  8
HIDDEN
  6
VECTORWORKS_DASH_02
 10
388.1119
 20
115.0658
 30
0.0
  0
VERTEX
  5
781
  8
HIDDEN
  6
VECTORWORKS_DASH_02
 10
388.1119
 20
115.0658
 30
0.0
  0
VERTEX
  5
782
  8
HIDDEN
  6
VECTORWORKS_DASH_02
 10
388.1119
 20
115.0658
 30
0.0
 42
0.242395
  0
VERTEX
  5
783
  8
HIDDEN
  6
VECTORWORKS_DASH_02
 10
386.9801
 20
111.5303
 30
0.0
  0
VERTEX
  5
784
  8
HIDDEN
  6
VECTORWORKS_DASH_02
 10
387.0606
 20
111.0497
 30
0.0
  0
VERTEX
  5
785
  8
HIDDEN
  6
VECTORWORKS_DASH_02
 10
387.0606
 20
111.0497
 30
0.0
  0
VERTEX
  5
786
  8
HIDDEN
  6
VECTORWORKS_DASH_02
 10
387.0606
 20
111.04971
 30
0.0
 42
0.242391
  0
VERTEX
  5
787
  8
HIDDEN
  6
VECTORWORKS_DASH_02
 10
389.80019
 20
107.38091
 30
0.0
  0
VERTEX
  5
788
  8
HIDDEN
  6
VECTORWORKS_DASH_02
 10
389.8002
 20
107.3809
 30
0.0
  0
VERTEX
  5
789
  8
HIDDEN
  6
VECTORWORKS_DASH_02
 10
398.5951
 20
103.0913
 30
0.0
  0
SEQEND
  5
78A
  8
HIDDEN
  6
VECTORWORKS_DASH_02
  0
ENDBLK
  5
8B
  8
HIDDEN
  0
BLOCK
  8
DIMENTION
  2
*G5
 70
     1
 10
0.0
 20
0.0
 30
0.0
  3
*G5
  1

  0
TEXT
  5
8D
  8
DIMENTION
 62
   212
 10
-388.953411
 20
-579.10033
 30
0.0
 40
16.93336
  1
280
 50
0.000504
 11
-388.95356
 21
-562.16697
 31
0.0
 73
     3
  0
TEXT
  5
8E
  8
DIMENTION
 62
   212
 10
-354.028386
 20
-576.3131
 30
0.0
 40
11.85335
  1
%%p}5
 50
0.000504
 11
-354.02849
 21
-564.45975
 31
0.0
 73
     3
  0
ENDBLK
  5
8F
  8
DIMENTION
  0
BLOCK
  8
DIMENTION
  2
*G6
 70
     1
 10
0.0
 20
0.0
 30
0.0
  3
*G6
  1

  0
TEXT
  5
91
  8
DIMENTION
 62
   212
 10
-585.03302
 20
-389.26151
 30
0.0
 40
16.93336
  1
330
 50
90.0
 11
-601.96638
 21
-389.26151
 31
0.0
 73
     3
  0
TEXT
  5
92
  8
DIMENTION
 62
   212
 10
-587.81994
 20
-354.33646
 30
0.0
 40
11.85335
  1
%%p}5
 50
90.0
 11
-599.67329
 21
-354.33646
 31
0.0
 73
     3
  0
ENDBLK
  5
93
  8
DIMENTION
  0
BLOCK
  8
DIMENTION
  2
*G7
 70
     1
 10
0.0
 20
0.0
 30
0.0
  3
*G7
  1

  0
TEXT
  5
95
  8
DIMENTION
 62
   212
 10
-640.03302
 20
-332.01128
 30
0.0
 40
16.93336
  1
445
 50
90.0
 11
-656.96638
 21
-332.01128
 31
0.0
 73
     3
  0
TEXT
  5
96
  8
DIMENTION
 62
   212
 10
-642.81994
 20
-297.08623
 30
0.0
 40
11.85335
  1
%%p}5
 50
90.0
 11
-654.67329
 21
-297.08623
 31
0.0
 73
     3
  0
ENDBLK
  5
97
  8
DIMENTION
  0
BLOCK
  8
DIMENTION
  2
*G8
 70
     1
 10
0.0
 20
0.0
 30
0.0
  3
*G8
  1

  0
TEXT
  5
99
  8
DIMENTION
 62
   212
 10
-136.55042
 20
-374.01293
 30
0.0
 40
16.93336
  1
360
 50
90.0
 11
-153.48378
 21
-374.01293
 31
0.0
 73
     3
  0
TEXT
  5
9A
  8
DIMENTION
 62
   212
 10
-139.33734
 20
-339.08788
 30
0.0
 40
11.85335
  1
%%p}5
 50
90.0
 11
-151.19069
 21
-339.08788
 31
0.0
 73
     3
  0
ENDBLK
  5
9B
  8
DIMENTION
  0
BLOCK
  8
DIMENTION
  2
*G9
 70
     1
 10
0.0
 20
0.0
 30
0.0
  3
*G9
  1

  0
TEXT
  5
9D
  8
DIMENTION
 62
   212
 10
-388.95345
 20
302.89992
 30
0.0
 40
16.93336
  1
300
 11
-388.95345
 21
319.83328
 31
0.0
 73
     3
  0
TEXT
  5
9E
  8
DIMENTION
 62
   212
 10
-354.0284
 20
305.68684
 30
0.0
 40
11.85335
  1
%%p}5
 11
-354.0284
 21
317.54019
 31
0.0
 73
     3
  0
ENDBLK
  5
9F
  8
DIMENTION
  0
BLOCK
  8
DIMENTION
  2
*G10
 70
     1
 10
0.0
 20
0.0
 30
0.0
  3
*G10
  1

  0
TEXT
  5
A1
  8
DIMENTION
 62
   212
 10
248.349809
 20
-447.37098
 30
0.0
 40
16.93336
  1
50
 50
0.000504
 11
248.34966
 21
-430.43762
 31
0.0
 73
     3
  0
ENDBLK
  5
A2
  8
DIMENTION
  0
BLOCK
  8
DIMENTION
  2
*G11
 70
     1
 10
0.0
 20
0.0
 30
0.0
  3
*G11
  1

  0
TEXT
  5
A4
  8
DIMENTION
 62
   212
 10
228.350359
 20
-489.37098
 30
0.0
 40
16.93336
  1
90
 50
0.000504
 11
228.35021
 21
-472.43762
 31
0.0
 73
     3
  0
ENDBLK
  5
A5
  8
DIMENTION
  0
BLOCK
  8
DIMENTION
  2
*G12
 70
     1
 10
0.0
 20
0.0
 30
0.0
  3
*G12
  1

  0
TEXT
  5
A7
  8
DIMENTION
 62
   212
 10
102.96698
 20
-491.58762
 30
0.0
 40
16.93336
  1
105
 50
90.0
 11
86.03362
 21
-491.58762
 31
0.0
 73
     3
  0
ENDBLK
  5
A8
  8
DIMENTION
  0
BLOCK
  8
DIMENTION
  2
*G13
 70
     1
 10
0.0
 20
0.0
 30
0.0
  3
*G13
  1

  0
TEXT
  5
AA
  8
DIMENTION
 62
   212
 10
102.96698
 20
-173.07055
 30
0.0
 40
16.93336
  1
555
 50
90.0
 11
86.03362
 21
-173.07055
 31
0.0
 73
     3
  0
TEXT
  5
AB
  8
DIMENTION
 62
   212
 10
100.18006
 20
-138.1455
 30
0.0
 40
11.85335
  1
%%p}5
 50
90.0
 11
88.32671
 21
-138.1455
 31
0.0
 73
     3
  0
ENDBLK
  5
AC
  8
DIMENTION
  0
BLOCK
  8
DIMENTION
  2
*G14
 70
     1
 10
0.0
 20
0.0
 30
0.0
  3
*G14
  1

  0
TEXT
  5
AE
  8
DIMENTION
 62
   212
 10
54.96698
 20
-225.57055
 30
0.0
 40
16.93336
  1
660
 50
90.0
 11
38.03362
 21
-225.57055
 31
0.0
 73
     3
  0
TEXT
  5
AF
  8
DIMENTION
 62
   212
 10
52.18006
 20
-190.6455
 30
0.0
 40
11.85335
  1
%%p}5
 50
90.0
 11
40.32671
 21
-190.6455
 31
0.0
 73
     3
  0
ENDBLK
  5
B0
  8
DIMENTION
  0
BLOCK
  8
DIMENTION
  2
*G15
 70
     1
 10
0.0
 20
0.0
 30
0.0
  3
*G15
  1

  0
TEXT
  5
B2
  8
DIMENTION
 62
   212
 10
54.96698
 20
159.73322
 30
0.0
 40
16.93336
  1
75
 50
90.0
 11
38.03362
 21
159.73322
 31
0.0
 73
     3
  0
ENDBLK
  5
B3
  8
DIMENTION
  0
BLOCK
  8
DIMENTION
  2
*G16
 70
     1
 10
0.0
 20
0.0
 30
0.0
  3
*G16
  1

  0
TEXT
  5
B5
  8
DIMENTION
 62
   212
 10
201.04655
 20
276.89992
 30
0.0
 40
16.93336
  1
110
 11
201.04655
 21
293.83328
 31
0.0
 73
     3
  0
TEXT
  5
B6
  8
DIMENTION
 62
   212
 10
235.9716
 20
279.68684
 30
0.0
 40
11.85335
  1
%%p}3
 11
235.9716
 21
291.54019
 31
0.0
 73
     3
  0
ENDBLK
  5
B7
  8
DIMENTION
  0
BLOCK
  8
DIMENTION
  2
*G17
 70
     1
 10
0.0
 20
0.0
 30
0.0
  3
*G17
  1

  0
TEXT
  5
B9
  8
DIMENTION
 62
   212
 10
476.04655
 20
276.89992
 30
0.0
 40
16.93336
  1
440
 11
476.04655
 21
293.83328
 31
0.0
 73
     3
  0
TEXT
  5
BA
  8
DIMENTION
 62
   212
 10
510.9716
 20
279.68684
 30
0.0
 40
11.85335
  1
%%p}5
 11
510.9716
 21
291.54019
 31
0.0
 73
     3
  0
ENDBLK
  5
BB
  8
DIMENTION
  0
BLOCK
  8
DIMENTION
  2
*G18
 70
     1
 10
0.0
 20
0.0
 30
0.0
  3
*G18
  1

  0
TEXT
  5
BD
  8
DIMENTION
 62
   212
 10
738.35032
 20
624.89992
 30
0.0
 40
16.93336
  1
50
 11
738.35032
 21
641.83328
 31
0.0
 73
     3
  0
ENDBLK
  5
BE
  8
DIMENTION
  0
BLOCK
  8
DIMENTION
  2
*G19
 70
     1
 10
0.0
 20
0.0
 30
0.0
  3
*G19
  1

  0
TEXT
  5
C0
  8
DIMENTION
 62
   212
 10
802.492039
 20
624.89982
 30
0.0
 40
16.93336
  1
10
 50
0.000504
 11
802.49189
 21
641.83318
 31
0.0
 73
     3
  0
ENDBLK
  5
C1
  8
DIMENTION
  0
BLOCK
  8
DIMENTION
  2
*G20
 70
     1
 10
0.0
 20
0.0
 30
0.0
  3
*G20
  1

  0
TEXT
  5
C3
  8
DIMENTION
 62
   212
 10
824.96698
 20
329.91238
 30
0.0
 40
16.93336
  1
425
 50
90.0
 11
808.03362
 21
329.91238
 31
0.0
 73
     3
  0
ENDBLK
  5
C4
  8
DIMENTION
  0
BLOCK
  8
DIMENTION
  2
*G21
 70
     1
 10
0.0
 20
0.0
 30
0.0
  3
*G21
  1

  0
TEXT
  5
C6
  8
DIMENTION
 62
   212
 10
874.96698
 20
-18.3914
 30
0.0
 40
16.93336
  1
1085
 50
90.0
 11
858.03362
 21
-18.3914
 31
0.0
 73
     3
  0
TEXT
  5
C7
  8
DIMENTION
 62
   212
 10
872.18006
 20
28.17534
 30
0.0
 40
11.85335
  1
%%p}5
 50
90.0
 11
860.32671
 21
28.17534
 31
0.0
 73
     3
  0
ENDBLK
  5
C8
  8
DIMENTION
  0
BLOCK
  8
DIMENTION
  2
*G22
 70
     1
 10
0.0
 20
0.0
 30
0.0
  3
*G22
  1

  0
TEXT
  5
CA
  8
DIMENTION
 62
   212
 10
318.350359
 20
10.89982
 30
0.0
 40
16.93336
  1
90
 50
0.000504
 11
318.35021
 21
27.83318
 31
0.0
 73
     3
  0
ENDBLK
  5
CB
  8
DIMENTION
  0
BLOCK
  8
OBJECT
  2
*G23
 70
     1
 10
0.0
 20
0.0
 30
0.0
  3
*G23
  1

  0
LINE
  5
CD
  8
CENTER
  6
CONTINUOUS
 10
-455.008
 20
224.3749
 30
0.0
 11
-415.008
 21
224.3749
 31
0.0
  0
LINE
  5
CE
  8
CENTER
  6
CONTINUOUS
 10
-435.008
 20
244.3749
 30
0.0
 11
-435.008
 21
204.3749
 31
0.0
  0
ENDBLK
  5
CF
  8
OBJECT
  0
BLOCK
  8
OBJECT
  2
*G24
 70
     1
 10
0.0
 20
0.0
 30
0.0
  3
*G24
  1

  0
LINE
  5
D1
  8
CENTER
  6
CONTINUOUS
 10
-305.008
 20
224.3749
 30
0.0
 11
-265.008
 21
224.3749
 31
0.0
  0
LINE
  5
D2
  8
CENTER
  6
CONTINUOUS
 10
-285.008
 20
244.3749
 30
0.0
 11
-285.008
 21
204.3749
 31
0.0
  0
ENDBLK
  5
D3
  8
OBJECT
  0
BLOCK
  8
CENTER
  2
*G25
 70
     1
 10
0.0
 20
0.0
 30
0.0
  3
*G25
  1

  0
LINE
  5
D5
  8
CENTER
  6
VECTORWORKS_DASH_09
 10
502.492
 20
-266.6251
 30
0.0
 11
507.492
 21
-266.6251
 31
0.0
  0
LINE
  5
D6
  8
CENTER
  6
VECTORWORKS_DASH_09
 10
504.992
 20
-269.1251
 30
0.0
 11
504.992
 21
-264.1251
 31
0.0
  0
LINE
  5
D7
  8
CENTER
  6
VECTORWORKS_DASH_09
 10
467.492
 20
-266.6251
 30
0.0
 11
497.492
 21
-266.6251
 31
0.0
  0
LINE
  5
D8
  8
CENTER
  6
VECTORWORKS_DASH_09
 10
512.492
 20
-266.6251
 30
0.0
 11
542.492
 21
-266.6251
 31
0.0
  0
LINE
  5
D9
  8
CENTER
  6
VECTORWORKS_DASH_09
 10
504.992
 20
-229.1251
 30
0.0
 11
504.992
 21
-259.1251
 31
0.0
  0
LINE
  5
DA
  8
CENTER
  6
VECTORWORKS_DASH_09
 10
504.992
 20
-274.1251
 30
0.0
 11
504.992
 21
-304.1251
 31
0.0
  0
ENDBLK
  5
DB
  8
CENTER
  0
ENDSEC
  0
SECTION
  2
ENTITIES
  0
POLYLINE
  5
DC
  8
OBJECT
  6
CONTINUOUS
 66
     1
 10
0.0
 20
0.0
 30
0.0
 70
   129
  0
VERTEX
  5
78B
  8
OBJECT
  6
CONTINUOUS
 10
-146.0
 20
-263.0
 30
0.0
  0
VERTEX
  5
78C
  8
OBJECT
  6
CONTINUOUS
 10
-140.0
 20
-263.0
 30
0.0
  0
VERTEX
  5
78D
  8
OBJECT
  6
CONTINUOUS
 10
-140.0
 20
-323.0
 30
0.0
  0
VERTEX
  5
78E
  8
OBJECT
  6
CONTINUOUS
 10
-146.0
 20
-323.0
 30
0.0
  0
VERTEX
  5
78F
  8
OBJECT
  6
CONTINUOUS
 10
-146.0
 20
-263.0
 30
0.0
  0
SEQEND
  5
790
  8
OBJECT
  6
CONTINUOUS
  0
LINE
  5
DD
  8
CENTER
  6
VECTORWORKS_DASH_09
 10
-229.1
 20
-293.0
 30
0.0
 11
-128.0
 21
-293.0
 31
0.0
  0
LINE
  5
DE
  8
OBJECT
  6
CONTINUOUS
 10
-146.0
 20
-314.0
 30
0.0
 11
-146.0
 21
-272.0
 31
0.0
  0
LINE
  5
DF
  8
FRAME
  6
CONTINUOUS
 10
-652.892
 20
-900.9143
 30
0.0
 11
-652.892
 21
459.0857
 31
0.0
  0
LINE
  5
E0
  8
FRAME
  6
CONTINUOUS
 10
1372.108
 20
-900.9143
 30
0.0
 11
-652.892
 21
-900.9143
 31
0.0
  0
LINE
  5
E1
  8
FRAME
  6
CONTINUOUS
 10
1372.108
 20
459.0857
 30
0.0
 11
1372.108
 21
-900.9143
 31
0.0
  0
LINE
  5
E2
  8
FRAME
  6
CONTINUOUS
 10
-652.892
 20
459.0857
 30
0.0
 11
1372.108
 21
459.0857
 31
0.0
  0
LINE
  5
E3
  8
FRAME
  6
CONTINUOUS
 10
991.988
 20
-900.9143
 30
0.0
 11
991.988
 21
-830.9143
 31
0.0
  0
LINE
  5
E4
  8
FRAME
  6
CONTINUOUS
 10
881.988
 20
-900.9143
 30
0.0
 11
881.988
 21
-830.9143
 31
0.0
  0
LINE
  5
E5
  8
FRAME
  6
CONTINUOUS
 10
581.988
 20
-900.9143
 30
0.0
 11
581.988
 21
-830.9143
 31
0.0
  0
LINE
  5
E6
  8
FRAME
  6
CONTINUOUS
 10
22.108
 20
-900.9143
 30
0.0
 11
22.108
 21
-830.9143
 31
0.0
  0
TEXT
  5
E7
  8
TEXT
 62
   221
 10
34.488
 20
-847.5905
 30
0.0
 40
14.1112
  1
òiü@û╝
 11
34.488
 21
-833.4793
 31
0.0
 73
     3
  0
TEXT
  5
E8
  8
TEXT
 62
   221
 10
591.988
 20
-850.0905
 30
0.0
 40
14.1112
  1
î`ü@Ä«
 11
591.988
 21
-835.9793
 31
0.0
 73
     3
  0
TEXT
  5
E9
  8
TEXT
 62
   221
 10
894.488
 20
-850.0905
 30
0.0
 40
14.1112
  1
Ä┌ü@ôx
 11
894.488
 21
-835.9793
 31
0.0
 73
     3
  0
TEXT
  5
EA
  8
TEXT
 62
   221
 10
1004.488
 20
-850.0905
 30
0.0
 40
14.1112
  1
É}ü@öÈ
 11
1004.488
 21
-835.9793
 31
0.0
 73
     3
  0
LINE
  5
EB
  8
FRAME
  6
CONTINUOUS
 10
-187.892
 20
-900.9143
 30
0.0
 11
-187.892
 21
-830.9143
 31
0.0
  0
TEXT
  5
EC
  8
TEXT
 62
   221
 10
917.464
 20
-883.1769
 30
0.0
 40
19.7556
  1
1/10
 11
917.464
 21
-863.4213
 31
0.0
 73
     3
  0
LINE
  5
ED
  8
FRAME
  6
CONTINUOUS
 10
-652.892
 20
-830.9143
 30
0.0
 11
1372.108
 21
-830.9143
 31
0.0
  0
TEXT
  5
EE
  8
TEXT
 62
   221
 10
-183.012
 20
-849.0799
 30
0.0
 40
14.1112
  1
îƒ  É}
 11
-183.012
 21
-834.9687
 31
0.0
 73
     3
  0
TEXT
  5
EF
  8
TEXT
 62
   221
 10
-183.012
 20
-871.6205
 30
0.0
 40
14.1112
  1
ÆS  ôû
 11
-183.012
 21
-857.5093
 31
0.0
 73
     3
  0
TEXT
  5
F0
  8
TEXT
 62
   221
 10
-183.012
 20
-894.0555
 30
0.0
 40
14.1112
  1
öNîÄô·
 11
-183.012
 21
-879.9443
 31
0.0
 73
     3
  0
TEXT
  5
F1
  8
TEXT
 62
   221
 10
158.108
 20
-879.44471
 30
0.0
 40
33.86666
  1
âKâXâuü[âXâ^ü[
 11
158.108
 21
-845.57805
 31
0.0
 73
     3
  0
LINE
  5
F2
  8
FRAME
  6
CONTINUOUS
 10
-187.892
 20
-855.3843
 30
0.0
 11
22.108
 21
-855.3843
 31
0.0
  0
LINE
  5
F3
  8
FRAME
  6
CONTINUOUS
 10
-187.892
 20
-877.5793
 30
0.0
 11
22.108
 21
-877.5793
 31
0.0
  0
TEXT
  5
F4
  8
TEXT
 62
   221
 10
-91.192
 20
-893.2706
 30
0.0
 40
12.7
  1
02.5.15
 11
-91.192
 21
-880.5706
 31
0.0
 73
     3
  0
TEXT
  5
F5
  8
TEXT
 62
   221
 10
-106.526
 20
-872.60522
 30
0.0
 40
14.11112
  1
H.Shimono
 11
-106.526
 21
-858.4941
 31
0.0
 73
     3
  0
TEXT
  5
F6
  8
TEXT
 62
   221
 10
-97.026
 20
-849.60522
 30
0.0
 40
14.11112
  1
T.Ohtani
 11
-97.026
 21
-835.4941
 31
0.0
 73
     3
  0
POLYLINE
  5
F7
  8
OBJECT
  6
CONTINUOUS
 66
     1
 10
0.0
 20
0.0
 30
0.0
 70
   129
  0
VERTEX
  5
791
  8
OBJECT
  6
CONTINUOUS
 10
-140.0
 20
-78.0
 30
0.0
  0
VERTEX
  5
792
  8
OBJECT
  6
CONTINUOUS
 10
140.0
 20
-78.0
 30
0.0
  0
VERTEX
  5
793
  8
OBJECT
  6
CONTINUOUS
 10
140.0
 20
-633.0
 30
0.0
  0
VERTEX
  5
794
  8
OBJECT
  6
CONTINUOUS
 10
-140.0
 20
-633.0
 30
0.0
  0
VERTEX
  5
795
  8
OBJECT
  6
CONTINUOUS
 10
-140.0
 20
-78.0
 30
0.0
  0
SEQEND
  5
796
  8
OBJECT
  6
CONTINUOUS
  0
INSERT
  5
F8
  8
OBJECT
  2
*G0
 10
360.008
 20
-211.3749
 30
0.0
  0
INSERT
  5
F9
  8
OBJECT
  2
*G1
 10
360.008
 20
-211.3749
 30
0.0
  0
POLYLINE
  5
FA
  8
OBJECT
  6
CONTINUOUS
 66
     1
 10
0.0
 20
0.0
 30
0.0
 70
   129
  0
VERTEX
  5
797
  8
OBJECT
  6
CONTINUOUS
 10
-90.0
 20
-108.0
 30
0.0
 42
-0.414214
  0
VERTEX
  5
798
  8
OBJECT
  6
CONTINUOUS
 10
-86.0
 20
-104.0
 30
0.0
  0
VERTEX
  5
799
  8
OBJECT
  6
CONTINUOUS
 10
-24.0
 20
-104.0
 30
0.0
 42
-0.414214
  0
VERTEX
  5
79A
  8
OBJECT
  6
CONTINUOUS
 10
-20.0
 20
-108.0
 30
0.0
  0
VERTEX
  5
79B
  8
OBJECT
  6
CONTINUOUS
 10
-20.0
 20
-250.0
 30
0.0
 42
-0.414214
  0
VERTEX
  5
79C
  8
OBJECT
  6
CONTINUOUS
 10
-24.0
 20
-254.0
 30
0.0
  0
VERTEX
  5
79D
  8
OBJECT
  6
CONTINUOUS
 10
-86.0
 20
-254.0
 30
0.0
 42
-0.414214
  0
VERTEX
  5
79E
  8
OBJECT
  6
CONTINUOUS
 10
-90.0
 20
-250.0
 30
0.0
  0
VERTEX
  5
79F
  8
OBJECT
  6
CONTINUOUS
 10
-90.0
 20
-108.0
 30
0.0
  0
SEQEND
  5
7A0
  8
OBJECT
  6
CONTINUOUS
  0
POLYLINE
  5
FB
  8
OBJECT
  6
CONTINUOUS
 66
     1
 10
0.0
 20
0.0
 30
0.0
 70
   129
  0
VERTEX
  5
7A1
  8
OBJECT
  6
CONTINUOUS
 10
-88.0
 20
-108.0
 30
0.0
 42
-0.414214
  0
VERTEX
  5
7A2
  8
OBJECT
  6
CONTINUOUS
 10
-86.0
 20
-106.0
 30
0.0
  0
VERTEX
  5
7A3
  8
OBJECT
  6
CONTINUOUS
 10
-24.0
 20
-106.0
 30
0.0
  0
VERTEX
  5
7A4
  8
OBJECT
  6
CONTINUOUS
 10
-24.0
 20
-106.0
 30
0.0
 42
-0.414214
  0
VERTEX
  5
7A5
  8
OBJECT
  6
CONTINUOUS
 10
-22.0
 20
-108.0
 30
0.0
  0
VERTEX
  5
7A6
  8
OBJECT
  6
CONTINUOUS
 10
-22.0
 20
-250.0
 30
0.0
  0
VERTEX
  5
7A7
  8
OBJECT
  6
CONTINUOUS
 10
-22.0
 20
-250.0
 30
0.0
 42
-0.414214
  0
VERTEX
  5
7A8
  8
OBJECT
  6
CONTINUOUS
 10
-24.0
 20
-252.0
 30
0.0
  0
VERTEX
  5
7A9
  8
OBJECT
  6
CONTINUOUS
 10
-86.0
 20
-252.0
 30
0.0
  0
VERTEX
  5
7AA
  8
OBJECT
  6
CONTINUOUS
 10
-86.0
 20
-252.0
 30
0.0
 42
-0.414214
  0
VERTEX
  5
7AB
  8
OBJECT
  6
CONTINUOUS
 10
-88.0
 20
-250.0
 30
0.0
  0
VERTEX
  5
7AC
  8
OBJECT
  6
CONTINUOUS
 10
-88.0
 20
-108.0
 30
0.0
  0
SEQEND
  5
7AD
  8
OBJECT
  6
CONTINUOUS
  0
CIRCLE
  5
FC
  8
OBJECT
  6
CONTINUOUS
 10
-56.5
 20
-129.0
 30
0.0
 40
10.0
  0
CIRCLE
  5
FD
  8
OBJECT
  6
CONTINUOUS
 10
-42.5
 20
-155.0
 30
0.0
 40
2.5
  0
CIRCLE
  5
FE
  8
OBJECT
  6
CONTINUOUS
 10
-54.0
 20
-172.0
 30
0.0
 40
2.5
  0
CIRCLE
  5
FF
  8
OBJECT
  6
CONTINUOUS
 10
-42.5
 20
-172.0
 30
0.0
 40
2.5
  0
CIRCLE
  5
100
  8
OBJECT
  6
CONTINUOUS
 10
-65.5
 20
-172.0
 30
0.0
 40
2.5
  0
CIRCLE
  5
101
  8
OBJECT
  6
CONTINUOUS
 10
-54.0
 20
-200.0
 30
0.0
 40
2.5
  0
CIRCLE
  5
102
  8
OBJECT
  6
CONTINUOUS
 10
-42.5
 20
-200.0
 30
0.0
 40
2.5
  0
CIRCLE
  5
103
  8
OBJECT
  6
CONTINUOUS
 10
-65.5
 20
-200.0
 30
0.0
 40
2.5
  0
POLYLINE
  5
104
  8
OBJECT
  6
CONTINUOUS
 66
     1
 10
0.0
 20
0.0
 30
0.0
 70
   129
  0
VERTEX
  5
7AE
  8
OBJECT
  6
CONTINUOUS
 10
-64.5
 20
-225.5
 30
0.0
  0
VERTEX
  5
7AF
  8
OBJECT
  6
CONTINUOUS
 10
-48.5
 20
-225.5
 30
0.0
  0
VERTEX
  5
7B0
  8
OBJECT
  6
CONTINUOUS
 10
-48.5
 20
-236.5
 30
0.0
  0
VERTEX
  5
7B1
  8
OBJECT
  6
CONTINUOUS
 10
-64.5
 20
-236.5
 30
0.0
  0
VERTEX
  5
7B2
  8
OBJECT
  6
CONTINUOUS
 10
-64.5
 20
-225.5
 30
0.0
  0
SEQEND
  5
7B3
  8
OBJECT
  6
CONTINUOUS
  0
CIRCLE
  5
105
  8
OBJECT
  6
CONTINUOUS
 10
-30.0
 20
-543.0
 30
0.0
 40
14.0
  0
LINE
  5
106
  8
HIDDEN
  6
VECTORWORKS_DASH_02
 10
-140.0
 20
-503.0
 30
0.0
 11
140.0
 21
-503.0
 31
0.0
  0
POLYLINE
  5
107
  8
HIDDEN
  6
VECTORWORKS_DASH_02
 66
     1
 10
0.0
 20
0.0
 30
0.0
 70
   129
  0
VERTEX
  5
7B4
  8
HIDDEN
  6
VECTORWORKS_DASH_02
 10
-101.0
 20
-519.0
 30
0.0
  0
VERTEX
  5
7B5
  8
HIDDEN
  6
VECTORWORKS_DASH_02
 10
101.0
 20
-519.0
 30
0.0
  0
VERTEX
  5
7B6
  8
HIDDEN
  6
VECTORWORKS_DASH_02
 10
101.0
 20
-622.0
 30
0.0
  0
VERTEX
  5
7B7
  8
HIDDEN
  6
VECTORWORKS_DASH_02
 10
-101.0
 20
-622.0
 30
0.0
  0
VERTEX
  5
7B8
  8
HIDDEN
  6
VECTORWORKS_DASH_02
 10
-101.0
 20
-519.0
 30
0.0
  0
SEQEND
  5
7B9
  8
HIDDEN
  6
VECTORWORKS_DASH_02
  0
LINE
  5
108
  8
CENTER
  6
VECTORWORKS_DASH_12
 10
0.0
 20
409.5
 30
0.0
 11
0.0
 21
-680.5
 31
0.0
  0
LINE
  5
109
  8
CENTER
  6
VECTORWORKS_DASH_12
 10
-30.0
 20
-600.0
 30
0.0
 11
30.0096
 21
-599.9904
 31
0.0
  0
POLYLINE
  5
10A
  8
HIDDEN
  6
VECTORWORKS_DASH_02
 66
     1
 10
0.0
 20
0.0
 30
0.0
 70
   128
  0
VERTEX
  5
7BA
  8
HIDDEN
  6
VECTORWORKS_DASH_02
 10
-86.5
 20
-622.0
 30
0.0
  0
VERTEX
  5
7BB
  8
HIDDEN
  6
VECTORWORKS_DASH_02
 10
-86.5
 20
-573.0
 30
0.0
  0
VERTEX
  5
7BC
  8
HIDDEN
  6
VECTORWORKS_DASH_02
 10
-86.5
 20
-573.0
 30
0.0
  0
VERTEX
  5
7BD
  8
HIDDEN
  6
VECTORWORKS_DASH_02
 10
-86.5
 20
-573.0
 30
0.0
 42
-0.414214
  0
VERTEX
  5
7BE
  8
HIDDEN
  6
VECTORWORKS_DASH_02
 10
-81.5
 20
-568.0
 30
0.0
  0
VERTEX
  5
7BF
  8
HIDDEN
  6
VECTORWORKS_DASH_02
 10
81.5
 20
-568.0
 30
0.0
  0
VERTEX
  5
7C0
  8
HIDDEN
  6
VECTORWORKS_DASH_02
 10
81.5
 20
-568.0
 30
0.0
  0
VERTEX
  5
7C1
  8
HIDDEN
  6
VECTORWORKS_DASH_02
 10
81.5
 20
-568.0
 30
0.0
 42
-0.414214
  0
VERTEX
  5
7C2
  8
HIDDEN
  6
VECTORWORKS_DASH_02
 10
86.5
 20
-573.0
 30
0.0
  0
VERTEX
  5
7C3
  8
HIDDEN
  6
VECTORWORKS_DASH_02
 10
86.5
 20
-622.0
 30
0.0
  0
SEQEND
  5
7C4
  8
HIDDEN
  6
VECTORWORKS_DASH_02
  0
ARC
  5
10B
  8
HIDDEN
  6
VECTORWORKS_DASH_02
 10
0.0
 20
-600.0
 30
0.0
 40
8.0
 50
90.0
 51
270.0
  0
ARC
  5
10C
  8
HIDDEN
  6
VECTORWORKS_DASH_02
 10
0.0
 20
-600.0
 30
0.0
 40
12.49996
 50
41.643817
 51
319.432801
  0
LINE
  5
10D
  8
HIDDEN
  6
VECTORWORKS_DASH_02
 10
-0.0025
 20
-592.0
 30
0.0
 11
30.007
 21
-591.9905
 31
0.0
  0
LINE
  5
10E
  8
HIDDEN
  6
VECTORWORKS_DASH_02
 10
0.0025
 20
-608.0
 30
0.0
 11
30.0121
 21
-607.9904
 31
0.0
  0
LINE
  5
10F
  8
HIDDEN
  6
VECTORWORKS_DASH_02
 10
52.0
 20
-569.9905
 30
0.0
 11
52.0
 21
-451.0
 31
0.0
  0
LINE
  5
110
  8
HIDDEN
  6
VECTORWORKS_DASH_02
 10
68.0
 20
-569.9904
 30
0.0
 11
68.0
 21
-451.0
 31
0.0
  0
POLYLINE
  5
111
  8
HIDDEN
  6
VECTORWORKS_DASH_02
 66
     1
 10
0.0
 20
0.0
 30
0.0
  0
VERTEX
  5
7C5
  8
HIDDEN
  6
VECTORWORKS_DASH_02
 10
15.0086
 20
-591.9952
 30
0.0
  0
VERTEX
  5
7C6
  8
HIDDEN
  6
VECTORWORKS_DASH_02
 10
9.8152
 20
-583.0
 30
0.0
  0
VERTEX
  5
7C7
  8
HIDDEN
  6
VECTORWORKS_DASH_02
 10
-9.8151
 20
-583.0
 30
0.0
  0
VERTEX
  5
7C8
  8
HIDDEN
  6
VECTORWORKS_DASH_02
 10
-19.6299
 20
-599.9998
 30
0.0
  0
VERTEX
  5
7C9
  8
HIDDEN
  6
VECTORWORKS_DASH_02
 10
-9.8151
 20
-616.9998
 30
0.0
  0
VERTEX
  5
7CA
  8
HIDDEN
  6
VECTORWORKS_DASH_02
 10
9.8149
 20
-617.0
 30
0.0
  0
VERTEX
  5
7CB
  8
HIDDEN
  6
VECTORWORKS_DASH_02
 10
15.0138
 20
-607.9952
 30
0.0
  0
SEQEND
  5
7CC
  8
HIDDEN
  6
VECTORWORKS_DASH_02
  0
ARC
  5
11A
  8
HIDDEN
  6
VECTORWORKS_DASH_02
 10
30.0
 20
-569.9904
 30
0.0
 40
38.0
 50
270.018244
 51
0.0
  0
ARC
  5
11B
  8
HIDDEN
  6
VECTORWORKS_DASH_02
 10
30.0
 20
-569.9905
 30
0.0
 40
22.0
 50
270.01823
 51
0.0
  0
POLYLINE
  5
11C
  8
HIDDEN
  6
VECTORWORKS_DASH_02
 66
     1
 10
0.0
 20
0.0
 30
0.0
 70
   129
  0
VERTEX
  5
7CD
  8
HIDDEN
  6
VECTORWORKS_DASH_02
 10
48.0
 20
-411.0
 30
0.0
  0
VERTEX
  5
7CE
  8
HIDDEN
  6
VECTORWORKS_DASH_02
 10
72.0
 20
-411.0
 30
0.0
  0
VERTEX
  5
7CF
  8
HIDDEN
  6
VECTORWORKS_DASH_02
 10
72.0
 20
-451.0
 30
0.0
  0
VERTEX
  5
7D0
  8
HIDDEN
  6
VECTORWORKS_DASH_02
 10
48.0
 20
-451.0
 30
0.0
  0
VERTEX
  5
7D1
  8
HIDDEN
  6
VECTORWORKS_DASH_02
 10
48.0
 20
-411.0
 30
0.0
  0
SEQEND
  5
7D2
  8
HIDDEN
  6
VECTORWORKS_DASH_02
  0
POLYLINE
  5
11D
  8
HIDDEN
  6
VECTORWORKS_DASH_02
 66
     1
 10
0.0
 20
0.0
 30
0.0
 70
   129
  0
VERTEX
  5
7D3
  8
HIDDEN
  6
VECTORWORKS_DASH_02
 10
-74.0
 20
-349.5
 30
0.0
  0
VERTEX
  5
7D4
  8
HIDDEN
  6
VECTORWORKS_DASH_02
 10
-30.0
 20
-349.5
 30
0.0
  0
VERTEX
  5
7D5
  8
HIDDEN
  6
VECTORWORKS_DASH_02
 10
-30.0
 20
-351.5
 30
0.0
  0
VERTEX
  5
7D6
  8
HIDDEN
  6
VECTORWORKS_DASH_02
 10
-74.0
 20
-351.5
 30
0.0
  0
VERTEX
  5
7D7
  8
HIDDEN
  6
VECTORWORKS_DASH_02
 10
-74.0
 20
-349.5
 30
0.0
  0
SEQEND
  5
7D8
  8
HIDDEN
  6
VECTORWORKS_DASH_02
  0
POLYLINE
  5
11E
  8
HIDDEN
  6
VECTORWORKS_DASH_02
 66
     1
 10
0.0
 20
0.0
 30
0.0
 70
   129
  0
VERTEX
  5
7D9
  8
HIDDEN
  6
VECTORWORKS_DASH_02
 10
-73.0
 20
-351.5
 30
0.0
  0
VERTEX
  5
7DA
  8
HIDDEN
  6
VECTORWORKS_DASH_02
 10
-31.0
 20
-351.5
 30
0.0
  0
VERTEX
  5
7DB
  8
HIDDEN
  6
VECTORWORKS_DASH_02
 10
-31.0
 20
-389.5
 30
0.0
  0
VERTEX
  5
7DC
  8
HIDDEN
  6
VECTORWORKS_DASH_02
 10
-73.0
 20
-389.5
 30
0.0
  0
VERTEX
  5
7DD
  8
HIDDEN
  6
VECTORWORKS_DASH_02
 10
-73.0
 20
-351.5
 30
0.0
  0
SEQEND
  5
7DE
  8
HIDDEN
  6
VECTORWORKS_DASH_02
  0
POLYLINE
  5
11F
  8
HIDDEN
  6
VECTORWORKS_DASH_02
 66
     1
 10
0.0
 20
0.0
 30
0.0
 70
   129
  0
VERTEX
  5
7DF
  8
HIDDEN
  6
VECTORWORKS_DASH_02
 10
-74.0
 20
-389.5
 30
0.0
  0
VERTEX
  5
7E0
  8
HIDDEN
  6
VECTORWORKS_DASH_02
 10
-30.0
 20
-389.5
 30
0.0
  0
VERTEX
  5
7E1
  8
HIDDEN
  6
VECTORWORKS_DASH_02
 10
-30.0
 20
-391.5
 30
0.0
  0
VERTEX
  5
7E2
  8
HIDDEN
  6
VECTORWORKS_DASH_02
 10
-74.0
 20
-391.5
 30
0.0
  0
VERTEX
  5
7E3
  8
HIDDEN
  6
VECTORWORKS_DASH_02
 10
-74.0
 20
-389.5
 30
0.0
  0
SEQEND
  5
7E4
  8
HIDDEN
  6
VECTORWORKS_DASH_02
  0
POLYLINE
  5
120
  8
HIDDEN
  6
VECTORWORKS_DASH_02
 66
     1
 10
0.0
 20
0.0
 30
0.0
 70
   129
  0
VERTEX
  5
7E5
  8
HIDDEN
  6
VECTORWORKS_DASH_02
 10
-74.0
 20
-391.5
 30
0.0
  0
VERTEX
  5
7E6
  8
HIDDEN
  6
VECTORWORKS_DASH_02
 10
-30.0
 20
-391.5
 30
0.0
  0
VERTEX
  5
7E7
  8
HIDDEN
  6
VECTORWORKS_DASH_02
 10
-30.0
 20
-397.5
 30
0.0
  0
VERTEX
  5
7E8
  8
HIDDEN
  6
VECTORWORKS_DASH_02
 10
-74.0
 20
-397.5
 30
0.0
  0
VERTEX
  5
7E9
  8
HIDDEN
  6
VECTORWORKS_DASH_02
 10
-74.0
 20
-391.5
 30
0.0
  0
SEQEND
  5
7EA
  8
HIDDEN
  6
VECTORWORKS_DASH_02
  0
POLYLINE
  5
121
  8
HIDDEN
  6
VECTORWORKS_DASH_02
 66
     1
 10
0.0
 20
0.0
 30
0.0
 70
   129
  0
VERTEX
  5
7EB
  8
HIDDEN
  6
VECTORWORKS_DASH_02
 10
-6.0
 20
-349.5
 30
0.0
  0
VERTEX
  5
7EC
  8
HIDDEN
  6
VECTORWORKS_DASH_02
 10
38.0
 20
-349.5
 30
0.0
  0
VERTEX
  5
7ED
  8
HIDDEN
  6
VECTORWORKS_DASH_02
 10
38.0
 20
-351.5
 30
0.0
  0
VERTEX
  5
7EE
  8
HIDDEN
  6
VECTORWORKS_DASH_02
 10
-6.0
 20
-351.5
 30
0.0
  0
VERTEX
  5
7EF
  8
HIDDEN
  6
VECTORWORKS_DASH_02
 10
-6.0
 20
-349.5
 30
0.0
  0
SEQEND
  5
7F0
  8
HIDDEN
  6
VECTORWORKS_DASH_02
  0
POLYLINE
  5
122
  8
HIDDEN
  6
VECTORWORKS_DASH_02
 66
     1
 10
0.0
 20
0.0
 30
0.0
 70
   129
  0
VERTEX
  5
7F1
  8
HIDDEN
  6
VECTORWORKS_DASH_02
 10
-5.0
 20
-351.5
 30
0.0
  0
VERTEX
  5
7F2
  8
HIDDEN
  6
VECTORWORKS_DASH_02
 10
37.0
 20
-351.5
 30
0.0
  0
VERTEX
  5
7F3
  8
HIDDEN
  6
VECTORWORKS_DASH_02
 10
37.0
 20
-389.5
 30
0.0
  0
VERTEX
  5
7F4
  8
HIDDEN
  6
VECTORWORKS_DASH_02
 10
-5.0
 20
-389.5
 30
0.0
  0
VERTEX
  5
7F5
  8
HIDDEN
  6
VECTORWORKS_DASH_02
 10
-5.0
 20
-351.5
 30
0.0
  0
SEQEND
  5
7F6
  8
HIDDEN
  6
VECTORWORKS_DASH_02
  0
POLYLINE
  5
123
  8
HIDDEN
  6
VECTORWORKS_DASH_02
 66
     1
 10
0.0
 20
0.0
 30
0.0
 70
   129
  0
VERTEX
  5
7F7
  8
HIDDEN
  6
VECTORWORKS_DASH_02
 10
-6.0
 20
-389.5
 30
0.0
  0
VERTEX
  5
7F8
  8
HIDDEN
  6
VECTORWORKS_DASH_02
 10
38.0
 20
-389.5
 30
0.0
  0
VERTEX
  5
7F9
  8
HIDDEN
  6
VECTORWORKS_DASH_02
 10
38.0
 20
-391.5
 30
0.0
  0
VERTEX
  5
7FA
  8
HIDDEN
  6
VECTORWORKS_DASH_02
 10
-6.0
 20
-391.5
 30
0.0
  0
VERTEX
  5
7FB
  8
HIDDEN
  6
VECTORWORKS_DASH_02
 10
-6.0
 20
-389.5
 30
0.0
  0
SEQEND
  5
7FC
  8
HIDDEN
  6
VECTORWORKS_DASH_02
  0
POLYLINE
  5
124
  8
HIDDEN
  6
VECTORWORKS_DASH_02
 66
     1
 10
0.0
 20
0.0
 30
0.0
 70
   129
  0
VERTEX
  5
7FD
  8
HIDDEN
  6
VECTORWORKS_DASH_02
 10
-6.0
 20
-391.5
 30
0.0
  0
VERTEX
  5
7FE
  8
HIDDEN
  6
VECTORWORKS_DASH_02
 10
38.0
 20
-391.5
 30
0.0
  0
VERTEX
  5
7FF
  8
HIDDEN
  6
VECTORWORKS_DASH_02
 10
38.0
 20
-397.5
 30
0.0
  0
VERTEX
  5
800
  8
HIDDEN
  6
VECTORWORKS_DASH_02
 10
-6.0
 20
-397.5
 30
0.0
  0
VERTEX
  5
801
  8
HIDDEN
  6
VECTORWORKS_DASH_02
 10
-6.0
 20
-391.5
 30
0.0
  0
SEQEND
  5
802
  8
HIDDEN
  6
VECTORWORKS_DASH_02
  0
POLYLINE
  5
125
  8
HIDDEN
  6
VECTORWORKS_DASH_02
 66
     1
 10
0.0
 20
0.0
 30
0.0
 70
     1
  0
VERTEX
  5
803
  8
HIDDEN
  6
VECTORWORKS_DASH_02
 10
36.0
 20
-453.5
 30
0.0
  0
VERTEX
  5
804
  8
HIDDEN
  6
VECTORWORKS_DASH_02
 10
-74.0
 20
-453.5
 30
0.0
  0
VERTEX
  5
805
  8
HIDDEN
  6
VECTORWORKS_DASH_02
 10
-74.0
 20
-449.5
 30
0.0
  0
VERTEX
  5
806
  8
HIDDEN
  6
VECTORWORKS_DASH_02
 10
-74.0
 20
-423.5
 30
0.0
  0
VERTEX
  5
807
  8
HIDDEN
  6
VECTORWORKS_DASH_02
 10
-90.0
 20
-423.5
 30
0.0
  0
VERTEX
  5
808
  8
HIDDEN
  6
VECTORWORKS_DASH_02
 10
-90.0
 20
-391.5
 30
0.0
  0
VERTEX
  5
809
  8
HIDDEN
  6
VECTORWORKS_DASH_02
 10
-74.0
 20
-391.5
 30
0.0
  0
VERTEX
  5
80A
  8
HIDDEN
  6
VECTORWORKS_DASH_02
 10
-74.0
 20
-397.5
 30
0.0
  0
VERTEX
  5
80B
  8
HIDDEN
  6
VECTORWORKS_DASH_02
 10
38.0
 20
-397.5
 30
0.0
  0
VERTEX
  5
80C
  8
HIDDEN
  6
VECTORWORKS_DASH_02
 10
38.0
 20
-417.5
 30
0.0
  0
VERTEX
  5
80D
  8
HIDDEN
  6
VECTORWORKS_DASH_02
 10
48.0
 20
-417.5
 30
0.0
  0
VERTEX
  5
80E
  8
HIDDEN
  6
VECTORWORKS_DASH_02
 10
48.0
 20
-449.5
 30
0.0
  0
VERTEX
  5
80F
  8
HIDDEN
  6
VECTORWORKS_DASH_02
 10
38.0
 20
-449.5
 30
0.0
  0
VERTEX
  5
810
  8
HIDDEN
  6
VECTORWORKS_DASH_02
 10
36.0
 20
-449.5
 30
0.0
  0
SEQEND
  5
811
  8
HIDDEN
  6
VECTORWORKS_DASH_02
  0
LINE
  5
135
  8
HIDDEN
  6
VECTORWORKS_DASH_02
 10
-90.0
 20
-418.5
 30
0.0
 11
-140.0
 21
-418.5
 31
0.0
  0
LINE
  5
136
  8
HIDDEN
  6
VECTORWORKS_DASH_02
 10
-90.0
 20
-396.5
 30
0.0
 11
-140.0
 21
-396.5
 31
0.0
  0
POLYLINE
  5
137
  8
OBJECT
  6
CONTINUOUS
 66
     1
 10
0.0
 20
0.0
 30
0.0
 70
   129
  0
VERTEX
  5
812
  8
OBJECT
  6
CONTINUOUS
 10
-140.0
 20
-421.5
 30
0.0
  0
VERTEX
  5
813
  8
OBJECT
  6
CONTINUOUS
 10
-150.0
 20
-421.5
 30
0.0
  0
VERTEX
  5
814
  8
OBJECT
  6
CONTINUOUS
 10
-150.0
 20
-421.5
 30
0.0
 42
0.414214
  0
VERTEX
  5
815
  8
OBJECT
  6
CONTINUOUS
 10
-153.0
 20
-424.5
 30
0.0
  0
VERTEX
  5
816
  8
OBJECT
  6
CONTINUOUS
 10
-153.0
 20
-434.5
 30
0.0
  0
VERTEX
  5
817
  8
OBJECT
  6
CONTINUOUS
 10
-181.0
 20
-434.5
 30
0.0
  0
VERTEX
  5
818
  8
OBJECT
  6
CONTINUOUS
 10
-181.0
 20
-421.5
 30
0.0
  0
VERTEX
  5
819
  8
OBJECT
  6
CONTINUOUS
 10
-181.0
 20
-421.5
 30
0.0
 42
-0.414214
  0
VERTEX
  5
81A
  8
OBJECT
  6
CONTINUOUS
 10
-153.0
 20
-393.5
 30
0.0
  0
VERTEX
  5
81B
  8
OBJECT
  6
CONTINUOUS
 10
-140.0
 20
-393.5
 30
0.0
  0
VERTEX
  5
81C
  8
OBJECT
  6
CONTINUOUS
 10
-140.0
 20
-421.5
 30
0.0
  0
SEQEND
  5
81D
  8
OBJECT
  6
CONTINUOUS
  0
POLYLINE
  5
138
  8
HIDDEN
  6
VECTORWORKS_DASH_02
 66
     1
 10
0.0
 20
0.0
 30
0.0
 70
     1
  0
VERTEX
  5
81E
  8
HIDDEN
  6
VECTORWORKS_DASH_02
 10
99.0
 20
-363.5
 30
0.0
  0
VERTEX
  5
81F
  8
HIDDEN
  6
VECTORWORKS_DASH_02
 10
99.0
 20
-390.5
 30
0.0
  0
VERTEX
  5
820
  8
HIDDEN
  6
VECTORWORKS_DASH_02
 10
80.0
 20
-390.5
 30
0.0
  0
VERTEX
  5
821
  8
HIDDEN
  6
VECTORWORKS_DASH_02
 10
80.0
 20
-398.5
 30
0.0
  0
VERTEX
  5
822
  8
HIDDEN
  6
VECTORWORKS_DASH_02
 10
50.0
 20
-398.5
 30
0.0
  0
VERTEX
  5
823
  8
HIDDEN
  6
VECTORWORKS_DASH_02
 10
50.0
 20
-363.5
 30
0.0
  0
VERTEX
  5
824
  8
HIDDEN
  6
VECTORWORKS_DASH_02
 10
54.5
 20
-363.5
 30
0.0
  0
VERTEX
  5
825
  8
HIDDEN
  6
VECTORWORKS_DASH_02
 10
54.5
 20
-346.5
 30
0.0
  0
VERTEX
  5
826
  8
HIDDEN
  6
VECTORWORKS_DASH_02
 10
75.5
 20
-346.5
 30
0.0
  0
VERTEX
  5
827
  8
HIDDEN
  6
VECTORWORKS_DASH_02
 10
75.5
 20
-363.5
 30
0.0
  0
VERTEX
  5
828
  8
HIDDEN
  6
VECTORWORKS_DASH_02
 10
80.0
 20
-363.5
 30
0.0
  0
SEQEND
  5
829
  8
HIDDEN
  6
VECTORWORKS_DASH_02
  0
LINE
  5
145
  8
HIDDEN
  6
VECTORWORKS_DASH_02
 10
59.0
 20
-346.5
 30
0.0
 11
59.0
 21
-103.0
 31
0.0
  0
LINE
  5
146
  8
HIDDEN
  6
VECTORWORKS_DASH_02
 10
71.0
 20
-346.5
 30
0.0
 11
71.0
 21
-103.0
 31
0.0
  0
ARC
  5
147
  8
HIDDEN
  6
VECTORWORKS_DASH_02
 10
65.0
 20
-103.0
 30
0.0
 40
6.0
 50
0.0
 51
180.0
  0
POLYLINE
  5
148
  8
HIDDEN
  6
VECTORWORKS_DASH_02
 66
     1
 10
0.0
 20
0.0
 30
0.0
 70
   129
  0
VERTEX
  5
82A
  8
HIDDEN
  6
VECTORWORKS_DASH_02
 10
-95.0
 20
-163.0
 30
0.0
 42
-0.414214
  0
VERTEX
  5
82B
  8
HIDDEN
  6
VECTORWORKS_DASH_02
 10
-90.0
 20
-158.0
 30
0.0
  0
VERTEX
  5
82C
  8
HIDDEN
  6
VECTORWORKS_DASH_02
 10
20.0
 20
-158.0
 30
0.0
 42
-0.414214
  0
VERTEX
  5
82D
  8
HIDDEN
  6
VECTORWORKS_DASH_02
 10
25.0
 20
-163.0
 30
0.0
  0
VERTEX
  5
82E
  8
HIDDEN
  6
VECTORWORKS_DASH_02
 10
25.0
 20
-243.0
 30
0.0
 42
-0.414214
  0
VERTEX
  5
82F
  8
HIDDEN
  6
VECTORWORKS_DASH_02
 10
20.0
 20
-248.0
 30
0.0
  0
VERTEX
  5
830
  8
HIDDEN
  6
VECTORWORKS_DASH_02
 10
-90.0
 20
-248.0
 30
0.0
 42
-0.414214
  0
VERTEX
  5
831
  8
HIDDEN
  6
VECTORWORKS_DASH_02
 10
-95.0
 20
-243.0
 30
0.0
  0
VERTEX
  5
832
  8
HIDDEN
  6
VECTORWORKS_DASH_02
 10
-95.0
 20
-163.0
 30
0.0
  0
SEQEND
  5
833
  8
HIDDEN
  6
VECTORWORKS_DASH_02
  0
POLYLINE
  5
149
  8
HIDDEN
  6
VECTORWORKS_DASH_02
 66
     1
 10
0.0
 20
0.0
 30
0.0
 70
   129
  0
VERTEX
  5
834
  8
HIDDEN
  6
VECTORWORKS_DASH_02
 10
-60.0
 20
-273.0
 30
0.0
 42
-0.414214
  0
VERTEX
  5
835
  8
HIDDEN
  6
VECTORWORKS_DASH_02
 10
-55.0
 20
-268.0
 30
0.0
  0
VERTEX
  5
836
  8
HIDDEN
  6
VECTORWORKS_DASH_02
 10
25.0
 20
-268.0
 30
0.0
 42
-0.414214
  0
VERTEX
  5
837
  8
HIDDEN
  6
VECTORWORKS_DASH_02
 10
30.0
 20
-273.0
 30
0.0
  0
VERTEX
  5
838
  8
HIDDEN
  6
VECTORWORKS_DASH_02
 10
30.0
 20
-313.0
 30
0.0
 42
-0.414214
  0
VERTEX
  5
839
  8
HIDDEN
  6
VECTORWORKS_DASH_02
 10
25.0
 20
-318.0
 30
0.0
  0
VERTEX
  5
83A
  8
HIDDEN
  6
VECTORWORKS_DASH_02
 10
-55.0
 20
-318.0
 30
0.0
 42
-0.414214
  0
VERTEX
  5
83B
  8
HIDDEN
  6
VECTORWORKS_DASH_02
 10
-60.0
 20
-313.0
 30
0.0
  0
VERTEX
  5
83C
  8
HIDDEN
  6
VECTORWORKS_DASH_02
 10
-60.0
 20
-273.0
 30
0.0
  0
SEQEND
  5
83D
  8
HIDDEN
  6
VECTORWORKS_DASH_02
  0
POLYLINE
  5
14A
  8
HIDDEN
  6
VECTORWORKS_DASH_02
 66
     1
 10
0.0
 20
0.0
 30
0.0
 70
   129
  0
VERTEX
  5
83E
  8
HIDDEN
  6
VECTORWORKS_DASH_02
 10
-90.0
 20
-277.0
 30
0.0
  0
VERTEX
  5
83F
  8
HIDDEN
  6
VECTORWORKS_DASH_02
 10
-70.0
 20
-277.0
 30
0.0
  0
VERTEX
  5
840
  8
HIDDEN
  6
VECTORWORKS_DASH_02
 10
-70.0
 20
-313.0
 30
0.0
  0
VERTEX
  5
841
  8
HIDDEN
  6
VECTORWORKS_DASH_02
 10
-90.0
 20
-313.0
 30
0.0
  0
VERTEX
  5
842
  8
HIDDEN
  6
VECTORWORKS_DASH_02
 10
-90.0
 20
-277.0
 30
0.0
  0
SEQEND
  5
843
  8
HIDDEN
  6
VECTORWORKS_DASH_02
  0
POLYLINE
  5
14B
  8
OBJECT
  6
CONTINUOUS
 66
     1
 10
0.0
 20
0.0
 30
0.0
 70
   129
  0
VERTEX
  5
844
  8
OBJECT
  6
CONTINUOUS
 10
140.0
 20
-465.5
 30
0.0
  0
VERTEX
  5
845
  8
OBJECT
  6
CONTINUOUS
 10
154.0
 20
-465.5
 30
0.0
  0
VERTEX
  5
846
  8
OBJECT
  6
CONTINUOUS
 10
154.0
 20
-490.5
 30
0.0
  0
VERTEX
  5
847
  8
OBJECT
  6
CONTINUOUS
 10
140.0
 20
-490.5
 30
0.0
  0
VERTEX
  5
848
  8
OBJECT
  6
CONTINUOUS
 10
140.0
 20
-465.5
 30
0.0
  0
SEQEND
  5
849
  8
OBJECT
  6
CONTINUOUS
  0
POLYLINE
  5
14C
  8
OBJECT
  6
CONTINUOUS
 66
     1
 10
0.0
 20
0.0
 30
0.0
 70
   129
  0
VERTEX
  5
84A
  8
OBJECT
  6
CONTINUOUS
 10
159.0
 20
-471.0
 30
0.0
  0
VERTEX
  5
84B
  8
OBJECT
  6
CONTINUOUS
 10
166.0
 20
-471.0
 30
0.0
  0
VERTEX
  5
84C
  8
OBJECT
  6
CONTINUOUS
 10
166.0
 20
-485.0
 30
0.0
  0
VERTEX
  5
84D
  8
OBJECT
  6
CONTINUOUS
 10
159.0
 20
-485.0
 30
0.0
  0
VERTEX
  5
84E
  8
OBJECT
  6
CONTINUOUS
 10
159.0
 20
-471.0
 30
0.0
  0
SEQEND
  5
84F
  8
OBJECT
  6
CONTINUOUS
  0
POLYLINE
  5
14D
  8
OBJECT
  6
CONTINUOUS
 66
     1
 10
0.0
 20
0.0
 30
0.0
 70
     1
  0
VERTEX
  5
850
  8
OBJECT
  6
CONTINUOUS
 10
154.0
 20
-468.0
 30
0.0
  0
VERTEX
  5
851
  8
OBJECT
  6
CONTINUOUS
 10
158.0
 20
-468.0
 30
0.0
  0
VERTEX
  5
852
  8
OBJECT
  6
CONTINUOUS
 10
159.0
 20
-471.0
 30
0.0
  0
VERTEX
  5
853
  8
OBJECT
  6
CONTINUOUS
 10
159.0
 20
-485.0
 30
0.0
  0
VERTEX
  5
854
  8
OBJECT
  6
CONTINUOUS
 10
158.0
 20
-488.0
 30
0.0
  0
VERTEX
  5
855
  8
OBJECT
  6
CONTINUOUS
 10
154.0
 20
-488.0
 30
0.0
  0
SEQEND
  5
856
  8
OBJECT
  6
CONTINUOUS
  0
LINE
  5
155
  8
OBJECT
  6
CONTINUOUS
 10
158.0
 20
-468.0
 30
0.0
 11
158.0
 21
-488.0
 31
0.0
  0
LINE
  5
156
  8
OBJECT
  6
CONTINUOUS
 10
156.0
 20
-468.0
 30
0.0
 11
156.0
 21
-488.0
 31
0.0
  0
POLYLINE
  5
157
  8
OBJECT
  6
CONTINUOUS
 66
     1
 10
0.0
 20
0.0
 30
0.0
 70
   129
  0
VERTEX
  5
857
  8
OBJECT
  6
CONTINUOUS
 10
-140.0
 20
-77.0
 30
0.0
 42
-0.414214
  0
VERTEX
  5
858
  8
OBJECT
  6
CONTINUOUS
 10
-139.0
 20
-76.0
 30
0.0
  0
VERTEX
  5
859
  8
OBJECT
  6
CONTINUOUS
 10
139.0
 20
-76.0
 30
0.0
 42
-0.414214
  0
VERTEX
  5
85A
  8
OBJECT
  6
CONTINUOUS
 10
140.0
 20
-77.0
 30
0.0
 42
-0.414214
  0
VERTEX
  5
85B
  8
OBJECT
  6
CONTINUOUS
 10
139.0
 20
-78.0
 30
0.0
  0
VERTEX
  5
85C
  8
OBJECT
  6
CONTINUOUS
 10
-139.0
 20
-78.0
 30
0.0
 42
-0.414214
  0
VERTEX
  5
85D
  8
OBJECT
  6
CONTINUOUS
 10
-140.0
 20
-77.0
 30
0.0
 42
-0.414214
  0
SEQEND
  5
85E
  8
OBJECT
  6
CONTINUOUS
  0
POLYLINE
  5
158
  8
OBJECT
  6
CONTINUOUS
 66
     1
 10
0.0
 20
0.0
 30
0.0
 70
   129
  0
VERTEX
  5
85F
  8
OBJECT
  6
CONTINUOUS
 10
-140.0
 20
-2.0
 30
0.0
  0
VERTEX
  5
860
  8
OBJECT
  6
CONTINUOUS
 10
140.0
 20
-2.0
 30
0.0
  0
VERTEX
  5
861
  8
OBJECT
  6
CONTINUOUS
 10
140.0
 20
-76.0
 30
0.0
  0
VERTEX
  5
862
  8
OBJECT
  6
CONTINUOUS
 10
-140.0
 20
-76.0
 30
0.0
  0
VERTEX
  5
863
  8
OBJECT
  6
CONTINUOUS
 10
-140.0
 20
-2.0
 30
0.0
  0
SEQEND
  5
864
  8
OBJECT
  6
CONTINUOUS
  0
POLYLINE
  5
159
  8
OBJECT
  6
CONTINUOUS
 66
     1
 10
0.0
 20
0.0
 30
0.0
 70
     1
  0
VERTEX
  5
865
  8
OBJECT
  6
CONTINUOUS
 10
142.0
 20
-74.0
 30
0.0
  0
VERTEX
  5
866
  8
OBJECT
  6
CONTINUOUS
 10
142.0
 20
0.0
 30
0.0
  0
VERTEX
  5
867
  8
OBJECT
  6
CONTINUOUS
 10
-142.0
 20
0.0
 30
0.0
  0
VERTEX
  5
868
  8
OBJECT
  6
CONTINUOUS
 10
-142.0
 20
-74.0
 30
0.0
  0
VERTEX
  5
869
  8
OBJECT
  6
CONTINUOUS
 10
-149.0
 20
-74.0
 30
0.0
  0
VERTEX
  5
86A
  8
OBJECT
  6
CONTINUOUS
 10
-149.0
 20
-76.0
 30
0.0
  0
VERTEX
  5
86B
  8
OBJECT
  6
CONTINUOUS
 10
-140.0
 20
-76.0
 30
0.0
  0
VERTEX
  5
86C
  8
OBJECT
  6
CONTINUOUS
 10
-140.0
 20
-2.0
 30
0.0
  0
VERTEX
  5
86D
  8
OBJECT
  6
CONTINUOUS
 10
140.0
 20
-2.0
 30
0.0
  0
VERTEX
  5
86E
  8
OBJECT
  6
CONTINUOUS
 10
140.0
 20
-76.0
 30
0.0
  0
VERTEX
  5
86F
  8
OBJECT
  6
CONTINUOUS
 10
149.0
 20
-76.0
 30
0.0
  0
VERTEX
  5
870
  8
OBJECT
  6
CONTINUOUS
 10
149.0
 20
-74.0
 30
0.0
  0
SEQEND
  5
871
  8
OBJECT
  6
CONTINUOUS
  0
CIRCLE
  5
167
  8
OBJECT
  6
CONTINUOUS
 10
75.0
 20
13.0
 30
0.0
 40
5.0
  0
CIRCLE
  5
168
  8
OBJECT
  6
CONTINUOUS
 10
-75.0
 20
13.0
 30
0.0
 40
5.0
  0
LINE
  5
169
  8
OBJECT
  6
CONTINUOUS
 10
-149.0
 20
348.0
 30
0.0
 11
-149.0
 21
-122.0
 31
0.0
  0
LINE
  5
16A
  8
OBJECT
  6
CONTINUOUS
 10
149.0
 20
348.0
 30
0.0
 11
149.0
 21
-122.0
 31
0.0
  0
LINE
  5
16B
  8
OBJECT
  6
CONTINUOUS
 10
142.0
 20
0.0
 30
0.0
 11
149.0
 21
0.0
 31
0.0
  0
LINE
  5
16C
  8
OBJECT
  6
CONTINUOUS
 10
-142.0
 20
0.0
 30
0.0
 11
-149.0
 21
0.0
 31
0.0
  0
POLYLINE
  5
16D
  8
OBJECT
  6
CONTINUOUS
 66
     1
 10
0.0
 20
0.0
 30
0.0
 70
   129
  0
VERTEX
  5
872
  8
OBJECT
  6
CONTINUOUS
 10
-149.0
 20
363.9808
 30
0.0
  0
VERTEX
  5
873
  8
OBJECT
  6
CONTINUOUS
 10
-149.0
 20
363.9808
 30
0.0
 42
-0.414214
  0
VERTEX
  5
874
  8
OBJECT
  6
CONTINUOUS
 10
-139.0
 20
373.9808
 30
0.0
  0
VERTEX
  5
875
  8
OBJECT
  6
CONTINUOUS
 10
139.0
 20
373.9808
 30
0.0
  0
VERTEX
  5
876
  8
OBJECT
  6
CONTINUOUS
 10
139.0
 20
373.9808
 30
0.0
 42
-0.414214
  0
VERTEX
  5
877
  8
OBJECT
  6
CONTINUOUS
 10
149.0
 20
363.9808
 30
0.0
  0
VERTEX
  5
878
  8
OBJECT
  6
CONTINUOUS
 10
149.0
 20
348.0
 30
0.0
  0
VERTEX
  5
879
  8
OBJECT
  6
CONTINUOUS
 10
-149.0
 20
348.0
 30
0.0
  0
VERTEX
  5
87A
  8
OBJECT
  6
CONTINUOUS
 10
-149.0
 20
363.9808
 30
0.0
  0
SEQEND
  5
87B
  8
OBJECT
  6
CONTINUOUS
  0
LINE
  5
16E
  8
CENTER
  6
CONTINUOUS
 10
30.0
 20
-433.5
 30
0.0
 11
90.0
 21
-433.5
 31
0.0
  0
ARC
  5
16F
  8
CENTER
  6
VECTORWORKS_DASH_12
 10
30.0
 20
-569.9904
 30
0.0
 40
30.0
 50
270.018335
 51
0.0
  0
LINE
  5
170
  8
CENTER
  6
VECTORWORKS_DASH_12
 10
60.0
 20
-404.5
 30
0.0
 11
60.0
 21
-569.9904
 31
0.0
  0
LINE
  5
171
  8
CENTER
  6
VECTORWORKS_DASH_13
 10
-195.0
 20
-407.5
 30
0.0
 11
-68.0
 21
-407.5
 31
0.0
  0
LINE
  5
172
  8
CENTER
  6
VECTORWORKS_DASH_12
 10
-167.0
 20
-447.5
 30
0.0
 11
-167.0
 21
-381.5
 31
0.0
  0
LINE
  5
173
  8
CENTER
  6
VECTORWORKS_DASH_12
 10
65.0
 20
-405.3577
 30
0.0
 11
65.0
 21
-75.3577
 31
0.0
  0
LINE
  5
174
  8
CENTER
  6
CONTINUOUS
 10
35.0
 20
-103.0
 30
0.0
 11
95.0
 21
-103.0
 31
0.0
  0
POLYLINE
  5
175
  8
OBJECT
  6
CONTINUOUS
 66
     1
 10
0.0
 20
0.0
 30
0.0
  0
VERTEX
  5
87C
  8
OBJECT
  6
CONTINUOUS
 10
-140.0
 20
-122.0
 30
0.0
  0
VERTEX
  5
87D
  8
OBJECT
  6
CONTINUOUS
 10
-151.0
 20
-122.0
 30
0.0
  0
VERTEX
  5
87E
  8
OBJECT
  6
CONTINUOUS
 10
-151.0
 20
348.0
 30
0.0
  0
VERTEX
  5
87F
  8
OBJECT
  6
CONTINUOUS
 10
151.0
 20
348.0
 30
0.0
  0
VERTEX
  5
880
  8
OBJECT
  6
CONTINUOUS
 10
151.0
 20
-122.0
 30
0.0
  0
VERTEX
  5
881
  8
OBJECT
  6
CONTINUOUS
 10
140.0
 20
-122.0
 30
0.0
  0
SEQEND
  5
882
  8
OBJECT
  6
CONTINUOUS
  0
LINE
  5
17D
  8
CENTER
  6
VECTORWORKS_DASH_12
 10
128.0
 20
-478.0
 30
0.0
 11
178.0
 21
-478.0
 31
0.0
  0
LINE
  5
17E
  8
CENTER
  6
VECTORWORKS_DASH_13
 10
44.5
 20
-377.0
 30
0.0
 11
215.0
 21
-377.0
 31
0.0
  0
LINE
  5
17F
  8
HIDDEN
  6
VECTORWORKS_DASH_02
 10
99.0
 20
-388.0
 30
0.0
 11
140.0
 21
-388.0
 31
0.0
  0
LINE
  5
180
  8
HIDDEN
  6
VECTORWORKS_DASH_02
 10
99.0
 20
-366.0
 30
0.0
 11
140.0
 21
-366.0
 31
0.0
  0
POLYLINE
  5
181
  8
OBJECT
  6
CONTINUOUS
 66
     1
 10
0.0
 20
0.0
 30
0.0
 70
   129
  0
VERTEX
  5
883
  8
OBJECT
  6
CONTINUOUS
 10
159.0
 20
-391.0
 30
0.0
  0
VERTEX
  5
884
  8
OBJECT
  6
CONTINUOUS
 10
169.0
 20
-391.0
 30
0.0
  0
VERTEX
  5
885
  8
OBJECT
  6
CONTINUOUS
 10
169.0
 20
-391.0
 30
0.0
 42
-0.414214
  0
VERTEX
  5
886
  8
OBJECT
  6
CONTINUOUS
 10
172.0
 20
-394.0
 30
0.0
  0
VERTEX
  5
887
  8
OBJECT
  6
CONTINUOUS
 10
172.0
 20
-404.0
 30
0.0
  0
VERTEX
  5
888
  8
OBJECT
  6
CONTINUOUS
 10
200.0
 20
-404.0
 30
0.0
  0
VERTEX
  5
889
  8
OBJECT
  6
CONTINUOUS
 10
200.0
 20
-391.0
 30
0.0
  0
VERTEX
  5
88A
  8
OBJECT
  6
CONTINUOUS
 10
200.0
 20
-391.0
 30
0.0
 42
0.414214
  0
VERTEX
  5
88B
  8
OBJECT
  6
CONTINUOUS
 10
172.0
 20
-363.0
 30
0.0
  0
VERTEX
  5
88C
  8
OBJECT
  6
CONTINUOUS
 10
159.0
 20
-363.0
 30
0.0
  0
VERTEX
  5
88D
  8
OBJECT
  6
CONTINUOUS
 10
159.0
 20
-391.0
 30
0.0
  0
SEQEND
  5
88E
  8
OBJECT
  6
CONTINUOUS
  0
LINE
  5
182
  8
OBJECT
  6
CONTINUOUS
 10
159.0
 20
-388.0
 30
0.0
 11
140.0
 21
-388.0
 31
0.0
  0
LINE
  5
183
  8
OBJECT
  6
CONTINUOUS
 10
159.0
 20
-366.0
 30
0.0
 11
140.0
 21
-366.0
 31
0.0
  0
LINE
  5
184
  8
CENTER
  6
CONTINUOUS
 10
186.0
 20
-418.5
 30
0.0
 11
186.0
 21
-352.5
 31
0.0
  0
POLYLINE
  5
185
  8
OBJECT
  6
CONTINUOUS
 66
     1
 10
0.0
 20
0.0
 30
0.0
 70
   129
  0
VERTEX
  5
88F
  8
OBJECT
  6
CONTINUOUS
 10
535.0
 20
-78.0
 30
0.0
  0
VERTEX
  5
890
  8
OBJECT
  6
CONTINUOUS
 10
635.0
 20
-78.0
 30
0.0
  0
VERTEX
  5
891
  8
OBJECT
  6
CONTINUOUS
 10
635.0
 20
-633.0
 30
0.0
  0
VERTEX
  5
892
  8
OBJECT
  6
CONTINUOUS
 10
535.0
 20
-633.0
 30
0.0
  0
VERTEX
  5
893
  8
OBJECT
  6
CONTINUOUS
 10
535.0
 20
-78.0
 30
0.0
  0
SEQEND
  5
894
  8
OBJECT
  6
CONTINUOUS
  0
POLYLINE
  5
186
  8
OBJECT
  6
CONTINUOUS
 66
     1
 10
0.0
 20
0.0
 30
0.0
 70
   129
  0
VERTEX
  5
895
  8
OBJECT
  6
CONTINUOUS
 10
645.0
 20
-78.0
 30
0.0
  0
VERTEX
  5
896
  8
OBJECT
  6
CONTINUOUS
 10
1085.0
 20
-78.0
 30
0.0
  0
VERTEX
  5
897
  8
OBJECT
  6
CONTINUOUS
 10
1085.0
 20
-503.0
 30
0.0
  0
VERTEX
  5
898
  8
OBJECT
  6
CONTINUOUS
 10
645.0
 20
-503.0
 30
0.0
  0
VERTEX
  5
899
  8
OBJECT
  6
CONTINUOUS
 10
645.0
 20
-78.0
 30
0.0
  0
SEQEND
  5
89A
  8
OBJECT
  6
CONTINUOUS
  0
POLYLINE
  5
187
  8
OBJECT
  6
CONTINUOUS
 66
     1
 10
0.0
 20
0.0
 30
0.0
 70
   129
  0
VERTEX
  5
89B
  8
OBJECT
  6
CONTINUOUS
 10
635.0
 20
-128.0
 30
0.0
  0
VERTEX
  5
89C
  8
OBJECT
  6
CONTINUOUS
 10
645.0
 20
-128.0
 30
0.0
  0
VERTEX
  5
89D
  8
OBJECT
  6
CONTINUOUS
 10
645.0
 20
-148.0
 30
0.0
  0
VERTEX
  5
89E
  8
OBJECT
  6
CONTINUOUS
 10
635.0
 20
-148.0
 30
0.0
  0
VERTEX
  5
89F
  8
OBJECT
  6
CONTINUOUS
 10
635.0
 20
-128.0
 30
0.0
  0
SEQEND
  5
8A0
  8
OBJECT
  6
CONTINUOUS
  0
POLYLINE
  5
188
  8
OBJECT
  6
CONTINUOUS
 66
     1
 10
0.0
 20
0.0
 30
0.0
 70
   129
  0
VERTEX
  5
8A1
  8
OBJECT
  6
CONTINUOUS
 10
635.0
 20
-423.0
 30
0.0
  0
VERTEX
  5
8A2
  8
OBJECT
  6
CONTINUOUS
 10
645.0
 20
-423.0
 30
0.0
  0
VERTEX
  5
8A3
  8
OBJECT
  6
CONTINUOUS
 10
645.0
 20
-443.0
 30
0.0
  0
VERTEX
  5
8A4
  8
OBJECT
  6
CONTINUOUS
 10
635.0
 20
-443.0
 30
0.0
  0
VERTEX
  5
8A5
  8
OBJECT
  6
CONTINUOUS
 10
635.0
 20
-423.0
 30
0.0
  0
SEQEND
  5
8A6
  8
OBJECT
  6
CONTINUOUS
  0
POLYLINE
  5
189
  8
OBJECT
  6
CONTINUOUS
 66
     1
 10
0.0
 20
0.0
 30
0.0
 70
   129
  0
VERTEX
  5
8A7
  8
OBJECT
  6
CONTINUOUS
 10
645.0
 20
-503.0
 30
0.0
  0
VERTEX
  5
8A8
  8
OBJECT
  6
CONTINUOUS
 10
1085.0
 20
-503.0
 30
0.0
  0
VERTEX
  5
8A9
  8
OBJECT
  6
CONTINUOUS
 10
1085.0
 20
-633.0
 30
0.0
  0
VERTEX
  5
8AA
  8
OBJECT
  6
CONTINUOUS
 10
645.0
 20
-633.0
 30
0.0
  0
VERTEX
  5
8AB
  8
OBJECT
  6
CONTINUOUS
 10
645.0
 20
-503.0
 30
0.0
  0
SEQEND
  5
8AC
  8
OBJECT
  6
CONTINUOUS
  0
INSERT
  5
18A
  8
OBJECT
  2
*G2
 10
360.008
 20
-211.3749
 30
0.0
  0
INSERT
  5
18B
  8
OBJECT
  2
*G3
 10
360.008
 20
-211.3749
 30
0.0
  0
CIRCLE
  5
18C
  8
OBJECT
  6
CONTINUOUS
 10
865.0
 20
-478.0
 30
0.0
 40
12.5
  0
CIRCLE
  5
18D
  8
OBJECT
  6
CONTINUOUS
 10
865.0
 20
-478.0
 30
0.0
 40
10.0
  0
POLYLINE
  5
18E
  8
OBJECT
  6
CONTINUOUS
 66
     1
 10
0.0
 20
0.0
 30
0.0
 70
   129
  0
VERTEX
  5
8AD
  8
OBJECT
  6
CONTINUOUS
 10
858.0
 20
-471.0
 30
0.0
  0
VERTEX
  5
8AE
  8
OBJECT
  6
CONTINUOUS
 10
872.0
 20
-471.0
 30
0.0
  0
VERTEX
  5
8AF
  8
OBJECT
  6
CONTINUOUS
 10
872.0
 20
-485.0
 30
0.0
  0
VERTEX
  5
8B0
  8
OBJECT
  6
CONTINUOUS
 10
858.0
 20
-485.0
 30
0.0
  0
VERTEX
  5
8B1
  8
OBJECT
  6
CONTINUOUS
 10
858.0
 20
-471.0
 30
0.0
  0
SEQEND
  5
8B2
  8
OBJECT
  6
CONTINUOUS
  0
POLYLINE
  5
18F
  8
OBJECT
  6
CONTINUOUS
 66
     1
 10
0.0
 20
0.0
 30
0.0
 70
   129
  0
VERTEX
  5
8B3
  8
OBJECT
  6
CONTINUOUS
 10
1085.0
 20
-135.0
 30
0.0
  0
VERTEX
  5
8B4
  8
OBJECT
  6
CONTINUOUS
 10
1085.0
 20
-135.0
 30
0.0
 42
-0.414214
  0
VERTEX
  5
8B5
  8
OBJECT
  6
CONTINUOUS
 10
1125.0
 20
-175.0
 30
0.0
  0
VERTEX
  5
8B6
  8
OBJECT
  6
CONTINUOUS
 10
1125.0
 20
-203.0
 30
0.0
  0
VERTEX
  5
8B7
  8
OBJECT
  6
CONTINUOUS
 10
1109.0
 20
-203.0
 30
0.0
  0
VERTEX
  5
8B8
  8
OBJECT
  6
CONTINUOUS
 10
1109.0
 20
-175.0
 30
0.0
  0
VERTEX
  5
8B9
  8
OBJECT
  6
CONTINUOUS
 10
1109.0
 20
-175.0
 30
0.0
 42
0.414214
  0
VERTEX
  5
8BA
  8
OBJECT
  6
CONTINUOUS
 10
1085.0
 20
-151.0
 30
0.0
  0
VERTEX
  5
8BB
  8
OBJECT
  6
CONTINUOUS
 10
1085.0
 20
-135.0
 30
0.0
  0
SEQEND
  5
8BC
  8
OBJECT
  6
CONTINUOUS
  0
POLYLINE
  5
190
  8
OBJECT
  6
CONTINUOUS
 66
     1
 10
0.0
 20
0.0
 30
0.0
 70
   129
  0
VERTEX
  5
8BD
  8
OBJECT
  6
CONTINUOUS
 10
638.0
 20
-304.0
 30
0.0
  0
VERTEX
  5
8BE
  8
OBJECT
  6
CONTINUOUS
 10
645.0
 20
-304.0
 30
0.0
  0
VERTEX
  5
8BF
  8
OBJECT
  6
CONTINUOUS
 10
645.0
 20
-322.0
 30
0.0
  0
VERTEX
  5
8C0
  8
OBJECT
  6
CONTINUOUS
 10
638.0
 20
-322.0
 30
0.0
  0
VERTEX
  5
8C1
  8
OBJECT
  6
CONTINUOUS
 10
638.0
 20
-304.0
 30
0.0
  0
SEQEND
  5
8C2
  8
OBJECT
  6
CONTINUOUS
  0
POLYLINE
  5
191
  8
HIDDEN
  6
VECTORWORKS_DASH_02
 66
     1
 10
0.0
 20
0.0
 30
0.0
 70
     1
  0
VERTEX
  5
8C3
  8
HIDDEN
  6
VECTORWORKS_DASH_02
 10
1051.0
 20
-67.0
 30
0.0
  0
VERTEX
  5
8C4
  8
HIDDEN
  6
VECTORWORKS_DASH_02
 10
1051.0
 20
-503.0
 30
0.0
  0
VERTEX
  5
8C5
  8
HIDDEN
  6
VECTORWORKS_DASH_02
 10
709.0
 20
-503.0
 30
0.0
  0
VERTEX
  5
8C6
  8
HIDDEN
  6
VECTORWORKS_DASH_02
 10
709.0
 20
-337.0
 30
0.0
  0
VERTEX
  5
8C7
  8
HIDDEN
  6
VECTORWORKS_DASH_02
 10
771.0
 20
-337.0
 30
0.0
  0
VERTEX
  5
8C8
  8
HIDDEN
  6
VECTORWORKS_DASH_02
 10
771.0
 20
-67.0
 30
0.0
  0
SEQEND
  5
8C9
  8
HIDDEN
  6
VECTORWORKS_DASH_02
  0
LINE
  5
199
  8
HIDDEN
  6
VECTORWORKS_DASH_02
 10
709.0
 20
-355.0
 30
0.0
 11
1051.0
 21
-355.0
 31
0.0
  0
LINE
  5
19A
  8
HIDDEN
  6
VECTORWORKS_DASH_02
 10
771.0
 20
-337.0
 30
0.0
 11
1051.0
 21
-337.0
 31
0.0
  0
POLYLINE
  5
19B
  8
HIDDEN
  6
VECTORWORKS_DASH_02
 66
     1
 10
0.0
 20
0.0
 30
0.0
 70
   129
  0
VERTEX
  5
8CA
  8
HIDDEN
  6
VECTORWORKS_DASH_02
 10
-102.5
 20
-67.0
 30
0.0
  0
VERTEX
  5
8CB
  8
HIDDEN
  6
VECTORWORKS_DASH_02
 10
-22.5
 20
-67.0
 30
0.0
  0
VERTEX
  5
8CC
  8
HIDDEN
  6
VECTORWORKS_DASH_02
 10
-22.5
 20
-78.0
 30
0.0
  0
VERTEX
  5
8CD
  8
HIDDEN
  6
VECTORWORKS_DASH_02
 10
-102.5
 20
-78.0
 30
0.0
  0
VERTEX
  5
8CE
  8
HIDDEN
  6
VECTORWORKS_DASH_02
 10
-102.5
 20
-67.0
 30
0.0
  0
SEQEND
  5
8CF
  8
HIDDEN
  6
VECTORWORKS_DASH_02
  0
POLYLINE
  5
19C
  8
OBJECT
  6
CONTINUOUS
 66
     1
 10
0.0
 20
0.0
 30
0.0
 70
   129
  0
VERTEX
  5
8D0
  8
OBJECT
  6
CONTINUOUS
 10
645.0
 20
-77.0
 30
0.0
 42
-0.414214
  0
VERTEX
  5
8D1
  8
OBJECT
  6
CONTINUOUS
 10
646.0
 20
-76.0
 30
0.0
  0
VERTEX
  5
8D2
  8
OBJECT
  6
CONTINUOUS
 10
1084.0
 20
-76.0
 30
0.0
 42
-0.414214
  0
VERTEX
  5
8D3
  8
OBJECT
  6
CONTINUOUS
 10
1085.0
 20
-77.0
 30
0.0
 42
-0.414214
  0
VERTEX
  5
8D4
  8
OBJECT
  6
CONTINUOUS
 10
1084.0
 20
-78.0
 30
0.0
  0
VERTEX
  5
8D5
  8
OBJECT
  6
CONTINUOUS
 10
646.0
 20
-78.0
 30
0.0
 42
-0.414214
  0
VERTEX
  5
8D6
  8
OBJECT
  6
CONTINUOUS
 10
645.0
 20
-77.0
 30
0.0
 42
-0.414214
  0
SEQEND
  5
8D7
  8
OBJECT
  6
CONTINUOUS
  0
POLYLINE
  5
19D
  8
OBJECT
  6
CONTINUOUS
 66
     1
 10
0.0
 20
0.0
 30
0.0
 70
   129
  0
VERTEX
  5
8D8
  8
OBJECT
  6
CONTINUOUS
 10
1085.0
 20
348.0
 30
0.0
  0
VERTEX
  5
8D9
  8
OBJECT
  6
CONTINUOUS
 10
1135.0
 20
348.0
 30
0.0
  0
VERTEX
  5
8DA
  8
OBJECT
  6
CONTINUOUS
 10
1135.0
 20
-122.0
 30
0.0
  0
VERTEX
  5
8DB
  8
OBJECT
  6
CONTINUOUS
 10
1095.0
 20
-122.0
 30
0.0
  0
VERTEX
  5
8DC
  8
OBJECT
  6
CONTINUOUS
 10
1095.0
 20
-122.0
 30
0.0
 42
-0.414214
  0
VERTEX
  5
8DD
  8
OBJECT
  6
CONTINUOUS
 10
1085.0
 20
-112.0
 30
0.0
  0
VERTEX
  5
8DE
  8
OBJECT
  6
CONTINUOUS
 10
1085.0
 20
348.0
 30
0.0
  0
SEQEND
  5
8DF
  8
OBJECT
  6
CONTINUOUS
  0
POLYLINE
  5
19E
  8
OBJECT
  6
CONTINUOUS
 66
     1
 10
0.0
 20
0.0
 30
0.0
  0
VERTEX
  5
8E0
  8
OBJECT
  6
CONTINUOUS
 10
1132.6906
 20
348.0
 30
0.0
  0
VERTEX
  5
8E1
  8
OBJECT
  6
CONTINUOUS
 10
1118.2679
 20
372.9808
 30
0.0
  0
VERTEX
  5
8E2
  8
OBJECT
  6
CONTINUOUS
 10
1120.0
 20
373.9808
 30
0.0
  0
VERTEX
  5
8E3
  8
OBJECT
  6
CONTINUOUS
 10
1135.0
 20
348.0
 30
0.0
  0
VERTEX
  5
8E4
  8
OBJECT
  6
CONTINUOUS
 10
1135.0
 20
348.0
 30
0.0
  0
SEQEND
  5
8E5
  8
OBJECT
  6
CONTINUOUS
  0
POLYLINE
  5
1A5
  8
OBJECT
  6
CONTINUOUS
 66
     1
 10
0.0
 20
0.0
 30
0.0
 70
   129
  0
VERTEX
  5
8E6
  8
OBJECT
  6
CONTINUOUS
 10
1092.0
 20
-122.0
 30
0.0
  0
VERTEX
  5
8E7
  8
OBJECT
  6
CONTINUOUS
 10
1135.0
 20
-122.0
 30
0.0
  0
VERTEX
  5
8E8
  8
OBJECT
  6
CONTINUOUS
 10
1135.0
 20
-92.5
 30
0.0
  0
VERTEX
  5
8E9
  8
OBJECT
  6
CONTINUOUS
 10
1135.0
 20
-92.5
 30
0.0
 42
-0.414214
  0
VERTEX
  5
8EA
  8
OBJECT
  6
CONTINUOUS
 10
1136.0
 20
-91.5
 30
0.0
  0
VERTEX
  5
8EB
  8
OBJECT
  6
CONTINUOUS
 10
1145.0
 20
-91.5
 30
0.0
  0
VERTEX
  5
8EC
  8
OBJECT
  6
CONTINUOUS
 10
1145.0
 20
-93.5
 30
0.0
  0
VERTEX
  5
8ED
  8
OBJECT
  6
CONTINUOUS
 10
1137.0
 20
-93.5
 30
0.0
  0
VERTEX
  5
8EE
  8
OBJECT
  6
CONTINUOUS
 10
1137.0
 20
-123.0
 30
0.0
  0
VERTEX
  5
8EF
  8
OBJECT
  6
CONTINUOUS
 10
1137.0
 20
-123.0
 30
0.0
 42
-0.414214
  0
VERTEX
  5
8F0
  8
OBJECT
  6
CONTINUOUS
 10
1136.0
 20
-124.0
 30
0.0
  0
VERTEX
  5
8F1
  8
OBJECT
  6
CONTINUOUS
 10
1092.0
 20
-124.0
 30
0.0
  0
VERTEX
  5
8F2
  8
OBJECT
  6
CONTINUOUS
 10
1092.0
 20
-122.0
 30
0.0
  0
SEQEND
  5
8F3
  8
OBJECT
  6
CONTINUOUS
  0
POLYLINE
  5
1A6
  8
OBJECT
  6
CONTINUOUS
 66
     1
 10
0.0
 20
0.0
 30
0.0
  0
VERTEX
  5
8F4
  8
OBJECT
  6
CONTINUOUS
 10
1085.0
 20
-76.0
 30
0.0
  0
VERTEX
  5
8F5
  8
OBJECT
  6
CONTINUOUS
 10
968.0
 20
-76.0
 30
0.0
  0
VERTEX
  5
8F6
  8
OBJECT
  6
CONTINUOUS
 10
968.0
 20
0.0
 30
0.0
  0
VERTEX
  5
8F7
  8
OBJECT
  6
CONTINUOUS
 10
1085.0
 20
0.0
 30
0.0
  0
SEQEND
  5
8F8
  8
OBJECT
  6
CONTINUOUS
  0
LINE
  5
1AC
  8
OBJECT
  6
CONTINUOUS
 10
1085.0
 20
-74.0
 30
0.0
 11
968.0
 21
-74.0
 31
0.0
  0
POLYLINE
  5
1AD
  8
OBJECT
  6
CONTINUOUS
 66
     1
 10
0.0
 20
0.0
 30
0.0
  0
VERTEX
  5
8F9
  8
OBJECT
  6
CONTINUOUS
 10
1085.0
 20
-76.0
 30
0.0
  0
VERTEX
  5
8FA
  8
OBJECT
  6
CONTINUOUS
 10
1085.0
 20
-76.0
 30
0.0
  0
VERTEX
  5
8FB
  8
OBJECT
  6
CONTINUOUS
 10
755.0
 20
-76.0
 30
0.0
  0
VERTEX
  5
8FC
  8
OBJECT
  6
CONTINUOUS
 10
755.0
 20
-2.0
 30
0.0
  0
VERTEX
  5
8FD
  8
OBJECT
  6
CONTINUOUS
 10
968.0
 20
-2.0
 30
0.0
  0
SEQEND
  5
8FE
  8
OBJECT
  6
CONTINUOUS
  0
CIRCLE
  5
1B4
  8
OBJECT
  6
CONTINUOUS
 10
990.0
 20
-26.0
 30
0.0
 40
3.0
  0
CIRCLE
  5
1B5
  8
OBJECT
  6
CONTINUOUS
 10
1005.0
 20
-26.0
 30
0.0
 40
3.0
  0
CIRCLE
  5
1B6
  8
OBJECT
  6
CONTINUOUS
 10
1020.0
 20
-26.0
 30
0.0
 40
3.0
  0
CIRCLE
  5
1B7
  8
OBJECT
  6
CONTINUOUS
 10
1035.0
 20
-26.0
 30
0.0
 40
3.0
  0
CIRCLE
  5
1B8
  8
OBJECT
  6
CONTINUOUS
 10
1050.0
 20
-26.0
 30
0.0
 40
3.0
  0
POLYLINE
  5
1B9
  8
HIDDEN
  6
VECTORWORKS_DASH_02
 66
     1
 10
0.0
 20
0.0
 30
0.0
  0
VERTEX
  5
8FF
  8
HIDDEN
  6
VECTORWORKS_DASH_02
 10
71.0
 20
-115.1244
 30
0.0
  0
VERTEX
  5
900
  8
HIDDEN
  6
VECTORWORKS_DASH_02
 10
78.5
 20
-110.7943
 30
0.0
  0
VERTEX
  5
901
  8
HIDDEN
  6
VECTORWORKS_DASH_02
 10
78.5
 20
-95.2057
 30
0.0
  0
VERTEX
  5
902
  8
HIDDEN
  6
VECTORWORKS_DASH_02
 10
65.0001
 20
-87.4116
 30
0.0
  0
VERTEX
  5
903
  8
HIDDEN
  6
VECTORWORKS_DASH_02
 10
51.5002
 20
-95.2057
 30
0.0
  0
VERTEX
  5
904
  8
HIDDEN
  6
VECTORWORKS_DASH_02
 10
51.5001
 20
-110.7941
 30
0.0
  0
VERTEX
  5
905
  8
HIDDEN
  6
VECTORWORKS_DASH_02
 10
59.0
 20
-115.1242
 30
0.0
  0
SEQEND
  5
906
  8
HIDDEN
  6
VECTORWORKS_DASH_02
  0
POLYLINE
  5
1C2
  8
HIDDEN
  6
VECTORWORKS_DASH_02
 66
     1
 10
0.0
 20
0.0
 30
0.0
  0
VERTEX
  5
907
  8
HIDDEN
  6
VECTORWORKS_DASH_02
 10
635.0
 20
-87.4116
 30
0.0
  0
VERTEX
  5
908
  8
HIDDEN
  6
VECTORWORKS_DASH_02
 10
625.0
 20
-87.4116
 30
0.0
  0
VERTEX
  5
909
  8
HIDDEN
  6
VECTORWORKS_DASH_02
 10
625.0
 20
-118.5884
 30
0.0
  0
VERTEX
  5
90A
  8
HIDDEN
  6
VECTORWORKS_DASH_02
 10
635.0
 20
-118.5884
 30
0.0
  0
SEQEND
  5
90B
  8
HIDDEN
  6
VECTORWORKS_DASH_02
  0
POLYLINE
  5
1C8
  8
OBJECT
  6
CONTINUOUS
 66
     1
 10
0.0
 20
0.0
 30
0.0
  0
VERTEX
  5
90C
  8
OBJECT
  6
CONTINUOUS
 10
635.0
 20
-87.4116
 30
0.0
  0
VERTEX
  5
90D
  8
OBJECT
  6
CONTINUOUS
 10
645.0
 20
-87.4116
 30
0.0
  0
VERTEX
  5
90E
  8
OBJECT
  6
CONTINUOUS
 10
645.0
 20
-118.5884
 30
0.0
  0
VERTEX
  5
90F
  8
OBJECT
  6
CONTINUOUS
 10
635.0
 20
-118.5884
 30
0.0
  0
SEQEND
  5
910
  8
OBJECT
  6
CONTINUOUS
  0
POLYLINE
  5
1CE
  8
HIDDEN
  6
VECTORWORKS_DASH_02
 66
     1
 10
0.0
 20
0.0
 30
0.0
 70
   129
  0
VERTEX
  5
911
  8
HIDDEN
  6
VECTORWORKS_DASH_02
 10
645.0
 20
-87.4116
 30
0.0
  0
VERTEX
  5
912
  8
HIDDEN
  6
VECTORWORKS_DASH_02
 10
655.0
 20
-87.4116
 30
0.0
  0
VERTEX
  5
913
  8
HIDDEN
  6
VECTORWORKS_DASH_02
 10
655.0
 20
-118.5884
 30
0.0
  0
VERTEX
  5
914
  8
HIDDEN
  6
VECTORWORKS_DASH_02
 10
645.0
 20
-118.5884
 30
0.0
  0
VERTEX
  5
915
  8
HIDDEN
  6
VECTORWORKS_DASH_02
 10
645.0
 20
-87.4116
 30
0.0
  0
SEQEND
  5
916
  8
HIDDEN
  6
VECTORWORKS_DASH_02
  0
POLYLINE
  5
1CF
  8
HIDDEN
  6
VECTORWORKS_DASH_02
 66
     1
 10
0.0
 20
0.0
 30
0.0
 70
   129
  0
VERTEX
  5
917
  8
HIDDEN
  6
VECTORWORKS_DASH_02
 10
659.0
 20
-87.4116
 30
0.0
  0
VERTEX
  5
918
  8
HIDDEN
  6
VECTORWORKS_DASH_02
 10
699.0
 20
-87.4116
 30
0.0
  0
VERTEX
  5
919
  8
HIDDEN
  6
VECTORWORKS_DASH_02
 10
699.0
 20
-118.5884
 30
0.0
  0
VERTEX
  5
91A
  8
HIDDEN
  6
VECTORWORKS_DASH_02
 10
659.0
 20
-118.5884
 30
0.0
  0
VERTEX
  5
91B
  8
HIDDEN
  6
VECTORWORKS_DASH_02
 10
659.0
 20
-87.4116
 30
0.0
  0
SEQEND
  5
91C
  8
HIDDEN
  6
VECTORWORKS_DASH_02
  0
INSERT
  5
1D0
  8
HIDDEN
  2
*G4
 10
360.008
 20
-211.3749
 30
0.0
  0
POLYLINE
  5
1D1
  8
HIDDEN
  6
VECTORWORKS_DASH_02
 66
     1
 10
0.0
 20
0.0
 30
0.0
 70
   129
  0
VERTEX
  5
91D
  8
HIDDEN
  6
VECTORWORKS_DASH_02
 10
645.0
 20
-310.0
 30
0.0
  0
VERTEX
  5
91E
  8
HIDDEN
  6
VECTORWORKS_DASH_02
 10
662.0
 20
-310.0
 30
0.0
  0
VERTEX
  5
91F
  8
HIDDEN
  6
VECTORWORKS_DASH_02
 10
662.0
 20
-316.0
 30
0.0
  0
VERTEX
  5
920
  8
HIDDEN
  6
VECTORWORKS_DASH_02
 10
645.0
 20
-316.0
 30
0.0
  0
VERTEX
  5
921
  8
HIDDEN
  6
VECTORWORKS_DASH_02
 10
645.0
 20
-310.0
 30
0.0
  0
SEQEND
  5
922
  8
HIDDEN
  6
VECTORWORKS_DASH_02
  0
POLYLINE
  5
1D2
  8
HIDDEN
  6
VECTORWORKS_DASH_02
 66
     1
 10
0.0
 20
0.0
 30
0.0
 70
   129
  0
VERTEX
  5
923
  8
HIDDEN
  6
VECTORWORKS_DASH_02
 10
629.0
 20
-306.0
 30
0.0
  0
VERTEX
  5
924
  8
HIDDEN
  6
VECTORWORKS_DASH_02
 10
635.0
 20
-306.0
 30
0.0
  0
VERTEX
  5
925
  8
HIDDEN
  6
VECTORWORKS_DASH_02
 10
635.0
 20
-320.0
 30
0.0
  0
VERTEX
  5
926
  8
HIDDEN
  6
VECTORWORKS_DASH_02
 10
629.0
 20
-320.0
 30
0.0
  0
VERTEX
  5
927
  8
HIDDEN
  6
VECTORWORKS_DASH_02
 10
629.0
 20
-306.0
 30
0.0
  0
SEQEND
  5
928
  8
HIDDEN
  6
VECTORWORKS_DASH_02
  0
POLYLINE
  5
1D3
  8
OBJECT
  6
CONTINUOUS
 66
     1
 10
0.0
 20
0.0
 30
0.0
 70
   129
  0
VERTEX
  5
929
  8
OBJECT
  6
CONTINUOUS
 10
635.0
 20
-308.0
 30
0.0
  0
VERTEX
  5
92A
  8
OBJECT
  6
CONTINUOUS
 10
638.0
 20
-308.0
 30
0.0
  0
VERTEX
  5
92B
  8
OBJECT
  6
CONTINUOUS
 10
638.0
 20
-318.0
 30
0.0
  0
VERTEX
  5
92C
  8
OBJECT
  6
CONTINUOUS
 10
635.0
 20
-318.0
 30
0.0
  0
VERTEX
  5
92D
  8
OBJECT
  6
CONTINUOUS
 10
635.0
 20
-308.0
 30
0.0
  0
SEQEND
  5
92E
  8
OBJECT
  6
CONTINUOUS
  0
POLYLINE
  5
1D4
  8
HIDDEN
  6
VECTORWORKS_DASH_02
 66
     1
 10
0.0
 20
0.0
 30
0.0
 70
   129
  0
VERTEX
  5
92F
  8
HIDDEN
  6
VECTORWORKS_DASH_02
 10
621.0
 20
-311.0
 30
0.0
  0
VERTEX
  5
930
  8
HIDDEN
  6
VECTORWORKS_DASH_02
 10
629.0
 20
-311.0
 30
0.0
  0
VERTEX
  5
931
  8
HIDDEN
  6
VECTORWORKS_DASH_02
 10
629.0
 20
-315.0
 30
0.0
  0
VERTEX
  5
932
  8
HIDDEN
  6
VECTORWORKS_DASH_02
 10
621.0
 20
-315.0
 30
0.0
  0
VERTEX
  5
933
  8
HIDDEN
  6
VECTORWORKS_DASH_02
 10
621.0
 20
-311.0
 30
0.0
  0
SEQEND
  5
934
  8
HIDDEN
  6
VECTORWORKS_DASH_02
  0
POLYLINE
  5
1D5
  8
OBJECT
  6
VECTORWORKS_DASH_01
 66
     1
 10
0.0
 20
0.0
 30
0.0
 70
   129
  0
VERTEX
  5
935
  8
OBJECT
  6
VECTORWORKS_DASH_01
 10
645.0
 20
-255.5
 30
0.0
  0
VERTEX
  5
936
  8
OBJECT
  6
VECTORWORKS_DASH_01
 10
650.0
 20
-255.5
 30
0.0
  0
VERTEX
  5
937
  8
OBJECT
  6
VECTORWORKS_DASH_01
 10
650.0
 20
-280.5
 30
0.0
  0
VERTEX
  5
938
  8
OBJECT
  6
VECTORWORKS_DASH_01
 10
645.0
 20
-280.5
 30
0.0
  0
VERTEX
  5
939
  8
OBJECT
  6
VECTORWORKS_DASH_01
 10
645.0
 20
-255.5
 30
0.0
  0
SEQEND
  5
93A
  8
OBJECT
  6
VECTORWORKS_DASH_01
  0
POLYLINE
  5
1D6
  8
HIDDEN
  6
VECTORWORKS_DASH_02
 66
     1
 10
0.0
 20
0.0
 30
0.0
 70
   129
  0
VERTEX
  5
93B
  8
HIDDEN
  6
VECTORWORKS_DASH_02
 10
650.0
 20
-264.0
 30
0.0
  0
VERTEX
  5
93C
  8
HIDDEN
  6
VECTORWORKS_DASH_02
 10
670.0
 20
-264.0
 30
0.0
  0
VERTEX
  5
93D
  8
HIDDEN
  6
VECTORWORKS_DASH_02
 10
670.0
 20
-264.0
 30
0.0
 42
-0.414214
  0
VERTEX
  5
93E
  8
HIDDEN
  6
VECTORWORKS_DASH_02
 10
689.0
 20
-283.0
 30
0.0
  0
VERTEX
  5
93F
  8
HIDDEN
  6
VECTORWORKS_DASH_02
 10
689.0
 20
-343.0
 30
0.0
  0
VERTEX
  5
940
  8
HIDDEN
  6
VECTORWORKS_DASH_02
 10
681.0
 20
-343.0
 30
0.0
  0
VERTEX
  5
941
  8
HIDDEN
  6
VECTORWORKS_DASH_02
 10
681.0
 20
-283.0
 30
0.0
  0
VERTEX
  5
942
  8
HIDDEN
  6
VECTORWORKS_DASH_02
 10
681.0
 20
-283.0
 30
0.0
 42
0.414214
  0
VERTEX
  5
943
  8
HIDDEN
  6
VECTORWORKS_DASH_02
 10
670.0
 20
-272.0
 30
0.0
  0
VERTEX
  5
944
  8
HIDDEN
  6
VECTORWORKS_DASH_02
 10
650.0
 20
-272.0
 30
0.0
  0
VERTEX
  5
945
  8
HIDDEN
  6
VECTORWORKS_DASH_02
 10
650.0
 20
-264.0
 30
0.0
  0
SEQEND
  5
946
  8
HIDDEN
  6
VECTORWORKS_DASH_02
  0
POLYLINE
  5
1D7
  8
HIDDEN
  6
VECTORWORKS_DASH_02
 66
     1
 10
0.0
 20
0.0
 30
0.0
 70
   129
  0
VERTEX
  5
947
  8
HIDDEN
  6
VECTORWORKS_DASH_02
 10
671.0
 20
-314.0
 30
0.0
 42
-0.414214
  0
VERTEX
  5
948
  8
HIDDEN
  6
VECTORWORKS_DASH_02
 10
676.0
 20
-309.0
 30
0.0
  0
VERTEX
  5
949
  8
HIDDEN
  6
VECTORWORKS_DASH_02
 10
694.0
 20
-309.0
 30
0.0
 42
-0.414214
  0
VERTEX
  5
94A
  8
HIDDEN
  6
VECTORWORKS_DASH_02
 10
699.0
 20
-314.0
 30
0.0
  0
VERTEX
  5
94B
  8
HIDDEN
  6
VECTORWORKS_DASH_02
 10
699.0
 20
-331.0
 30
0.0
 42
-0.414214
  0
VERTEX
  5
94C
  8
HIDDEN
  6
VECTORWORKS_DASH_02
 10
694.0
 20
-336.0
 30
0.0
  0
VERTEX
  5
94D
  8
HIDDEN
  6
VECTORWORKS_DASH_02
 10
676.0
 20
-336.0
 30
0.0
 42
-0.414214
  0
VERTEX
  5
94E
  8
HIDDEN
  6
VECTORWORKS_DASH_02
 10
671.0
 20
-331.0
 30
0.0
  0
VERTEX
  5
94F
  8
HIDDEN
  6
VECTORWORKS_DASH_02
 10
671.0
 20
-314.0
 30
0.0
  0
SEQEND
  5
950
  8
HIDDEN
  6
VECTORWORKS_DASH_02
  0
POLYLINE
  5
1D8
  8
OBJECT
  6
CONTINUOUS
 66
     1
 10
0.0
 20
0.0
 30
0.0
 70
   129
  0
VERTEX
  5
951
  8
OBJECT
  6
CONTINUOUS
 10
640.0
 20
-255.5
 30
0.0
  0
VERTEX
  5
952
  8
OBJECT
  6
CONTINUOUS
 10
645.0
 20
-255.5
 30
0.0
  0
VERTEX
  5
953
  8
OBJECT
  6
CONTINUOUS
 10
645.0
 20
-280.5
 30
0.0
  0
VERTEX
  5
954
  8
OBJECT
  6
CONTINUOUS
 10
640.0
 20
-280.5
 30
0.0
  0
VERTEX
  5
955
  8
OBJECT
  6
CONTINUOUS
 10
640.0
 20
-255.5
 30
0.0
  0
SEQEND
  5
956
  8
OBJECT
  6
CONTINUOUS
  0
POLYLINE
  5
1D9
  8
OBJECT
  6
CONTINUOUS
 66
     1
 10
0.0
 20
0.0
 30
0.0
 70
   129
  0
VERTEX
  5
957
  8
OBJECT
  6
CONTINUOUS
 10
635.0
 20
-263.0
 30
0.0
  0
VERTEX
  5
958
  8
OBJECT
  6
CONTINUOUS
 10
640.0
 20
-263.0
 30
0.0
  0
VERTEX
  5
959
  8
OBJECT
  6
CONTINUOUS
 10
640.0
 20
-273.0
 30
0.0
  0
VERTEX
  5
95A
  8
OBJECT
  6
CONTINUOUS
 10
635.0
 20
-273.0
 30
0.0
  0
VERTEX
  5
95B
  8
OBJECT
  6
CONTINUOUS
 10
635.0
 20
-263.0
 30
0.0
  0
SEQEND
  5
95C
  8
OBJECT
  6
CONTINUOUS
  0
POLYLINE
  5
1DA
  8
HIDDEN
  6
VECTORWORKS_DASH_02
 66
     1
 10
0.0
 20
0.0
 30
0.0
 70
   129
  0
VERTEX
  5
95D
  8
HIDDEN
  6
VECTORWORKS_DASH_02
 10
627.0
 20
-266.0
 30
0.0
  0
VERTEX
  5
95E
  8
HIDDEN
  6
VECTORWORKS_DASH_02
 10
635.0
 20
-266.0
 30
0.0
  0
VERTEX
  5
95F
  8
HIDDEN
  6
VECTORWORKS_DASH_02
 10
635.0
 20
-270.0
 30
0.0
  0
VERTEX
  5
960
  8
HIDDEN
  6
VECTORWORKS_DASH_02
 10
627.0
 20
-270.0
 30
0.0
  0
VERTEX
  5
961
  8
HIDDEN
  6
VECTORWORKS_DASH_02
 10
627.0
 20
-266.0
 30
0.0
  0
SEQEND
  5
962
  8
HIDDEN
  6
VECTORWORKS_DASH_02
  0
POLYLINE
  5
1DB
  8
HIDDEN
  6
VECTORWORKS_DASH_02
 66
     1
 10
0.0
 20
0.0
 30
0.0
  0
VERTEX
  5
963
  8
HIDDEN
  6
VECTORWORKS_DASH_02
 10
635.0
 20
-128.0
 30
0.0
  0
VERTEX
  5
964
  8
HIDDEN
  6
VECTORWORKS_DASH_02
 10
630.0
 20
-128.0
 30
0.0
  0
VERTEX
  5
965
  8
HIDDEN
  6
VECTORWORKS_DASH_02
 10
630.0
 20
-148.0
 30
0.0
  0
VERTEX
  5
966
  8
HIDDEN
  6
VECTORWORKS_DASH_02
 10
635.0
 20
-148.0
 30
0.0
  0
SEQEND
  5
967
  8
HIDDEN
  6
VECTORWORKS_DASH_02
  0
POLYLINE
  5
1E1
  8
HIDDEN
  6
VECTORWORKS_DASH_02
 66
     1
 10
0.0
 20
0.0
 30
0.0
  0
VERTEX
  5
968
  8
HIDDEN
  6
VECTORWORKS_DASH_02
 10
635.0
 20
-423.0
 30
0.0
  0
VERTEX
  5
969
  8
HIDDEN
  6
VECTORWORKS_DASH_02
 10
630.0
 20
-423.0
 30
0.0
  0
VERTEX
  5
96A
  8
HIDDEN
  6
VECTORWORKS_DASH_02
 10
630.0
 20
-443.0
 30
0.0
  0
VERTEX
  5
96B
  8
HIDDEN
  6
VECTORWORKS_DASH_02
 10
635.0
 20
-443.0
 30
0.0
  0
SEQEND
  5
96C
  8
HIDDEN
  6
VECTORWORKS_DASH_02
  0
POLYLINE
  5
1E7
  8
HIDDEN
  6
VECTORWORKS_DASH_01
 66
     1
 10
0.0
 20
0.0
 30
0.0
 70
   129
  0
VERTEX
  5
96D
  8
HIDDEN
  6
VECTORWORKS_DASH_01
 10
618.0
 20
-160.5
 30
0.0
  0
VERTEX
  5
96E
  8
HIDDEN
  6
VECTORWORKS_DASH_01
 10
628.0
 20
-160.5
 30
0.0
  0
VERTEX
  5
96F
  8
HIDDEN
  6
VECTORWORKS_DASH_01
 10
628.0
 20
-167.5
 30
0.0
  0
VERTEX
  5
970
  8
HIDDEN
  6
VECTORWORKS_DASH_01
 10
618.0
 20
-167.5
 30
0.0
  0
VERTEX
  5
971
  8
HIDDEN
  6
VECTORWORKS_DASH_01
 10
618.0
 20
-160.5
 30
0.0
  0
SEQEND
  5
972
  8
HIDDEN
  6
VECTORWORKS_DASH_01
  0
POLYLINE
  5
1E8
  8
HIDDEN
  6
VECTORWORKS_DASH_01
 66
     1
 10
0.0
 20
0.0
 30
0.0
 70
   129
  0
VERTEX
  5
973
  8
HIDDEN
  6
VECTORWORKS_DASH_01
 10
618.0
 20
-240.5
 30
0.0
  0
VERTEX
  5
974
  8
HIDDEN
  6
VECTORWORKS_DASH_01
 10
628.0
 20
-240.5
 30
0.0
  0
VERTEX
  5
975
  8
HIDDEN
  6
VECTORWORKS_DASH_01
 10
628.0
 20
-247.5
 30
0.0
  0
VERTEX
  5
976
  8
HIDDEN
  6
VECTORWORKS_DASH_01
 10
618.0
 20
-247.5
 30
0.0
  0
VERTEX
  5
977
  8
HIDDEN
  6
VECTORWORKS_DASH_01
 10
618.0
 20
-240.5
 30
0.0
  0
SEQEND
  5
978
  8
HIDDEN
  6
VECTORWORKS_DASH_01
  0
POLYLINE
  5
1E9
  8
HIDDEN
  6
VECTORWORKS_DASH_01
 66
     1
 10
0.0
 20
0.0
 30
0.0
 70
   129
  0
VERTEX
  5
979
  8
HIDDEN
  6
VECTORWORKS_DASH_01
 10
618.0
 20
-270.5
 30
0.0
  0
VERTEX
  5
97A
  8
HIDDEN
  6
VECTORWORKS_DASH_01
 10
628.0
 20
-270.5
 30
0.0
  0
VERTEX
  5
97B
  8
HIDDEN
  6
VECTORWORKS_DASH_01
 10
628.0
 20
-277.5
 30
0.0
  0
VERTEX
  5
97C
  8
HIDDEN
  6
VECTORWORKS_DASH_01
 10
618.0
 20
-277.5
 30
0.0
  0
VERTEX
  5
97D
  8
HIDDEN
  6
VECTORWORKS_DASH_01
 10
618.0
 20
-270.5
 30
0.0
  0
SEQEND
  5
97E
  8
HIDDEN
  6
VECTORWORKS_DASH_01
  0
POLYLINE
  5
1EA
  8
HIDDEN
  6
VECTORWORKS_DASH_01
 66
     1
 10
0.0
 20
0.0
 30
0.0
 70
   129
  0
VERTEX
  5
97F
  8
HIDDEN
  6
VECTORWORKS_DASH_01
 10
616.0
 20
-269.0
 30
0.0
  0
VERTEX
  5
980
  8
HIDDEN
  6
VECTORWORKS_DASH_01
 10
618.0
 20
-269.0
 30
0.0
  0
VERTEX
  5
981
  8
HIDDEN
  6
VECTORWORKS_DASH_01
 10
618.0
 20
-319.0
 30
0.0
  0
VERTEX
  5
982
  8
HIDDEN
  6
VECTORWORKS_DASH_01
 10
616.0
 20
-319.0
 30
0.0
  0
VERTEX
  5
983
  8
HIDDEN
  6
VECTORWORKS_DASH_01
 10
616.0
 20
-269.0
 30
0.0
  0
SEQEND
  5
984
  8
HIDDEN
  6
VECTORWORKS_DASH_01
  0
POLYLINE
  5
1EB
  8
HIDDEN
  6
VECTORWORKS_DASH_01
 66
     1
 10
0.0
 20
0.0
 30
0.0
 70
   129
  0
VERTEX
  5
985
  8
HIDDEN
  6
VECTORWORKS_DASH_01
 10
616.0
 20
-159.0
 30
0.0
  0
VERTEX
  5
986
  8
HIDDEN
  6
VECTORWORKS_DASH_01
 10
618.0
 20
-159.0
 30
0.0
  0
VERTEX
  5
987
  8
HIDDEN
  6
VECTORWORKS_DASH_01
 10
618.0
 20
-249.0
 30
0.0
  0
VERTEX
  5
988
  8
HIDDEN
  6
VECTORWORKS_DASH_01
 10
616.0
 20
-249.0
 30
0.0
  0
VERTEX
  5
989
  8
HIDDEN
  6
VECTORWORKS_DASH_01
 10
616.0
 20
-159.0
 30
0.0
  0
SEQEND
  5
98A
  8
HIDDEN
  6
VECTORWORKS_DASH_01
  0
LINE
  5
1EC
  8
CENTER
  6
CONTINUOUS
 10
562.0
 20
-433.5
 30
0.0
 11
625.0
 21
-433.5
 31
0.0
  0
LINE
  5
1ED
  8
CENTER
  6
CONTINUOUS
 10
595.0
 20
-616.5
 30
0.0
 11
595.0
 21
-405.5
 31
0.0
  0
POLYLINE
  5
1EE
  8
HIDDEN
  6
VECTORWORKS_DASH_02
 66
     1
 10
0.0
 20
0.0
 30
0.0
 70
   129
  0
VERTEX
  5
98B
  8
HIDDEN
  6
VECTORWORKS_DASH_02
 10
608.4993
 20
-451.5
 30
0.0
 42
0.236083
  0
VERTEX
  5
98C
  8
HIDDEN
  6
VECTORWORKS_DASH_02
 10
617.5
 20
-433.5
 30
0.0
  0
VERTEX
  5
98D
  8
HIDDEN
  6
VECTORWORKS_DASH_02
 10
617.5
 20
-433.5
 30
0.0
 42
0.414214
  0
VERTEX
  5
98E
  8
HIDDEN
  6
VECTORWORKS_DASH_02
 10
595.0
 20
-411.0
 30
0.0
 42
0.414214
  0
VERTEX
  5
98F
  8
HIDDEN
  6
VECTORWORKS_DASH_02
 10
572.5
 20
-433.5
 30
0.0
  0
VERTEX
  5
990
  8
HIDDEN
  6
VECTORWORKS_DASH_02
 10
572.5
 20
-433.5
 30
0.0
 42
0.236084
  0
VERTEX
  5
991
  8
HIDDEN
  6
VECTORWORKS_DASH_02
 10
581.5007
 20
-451.5
 30
0.0
  0
VERTEX
  5
992
  8
HIDDEN
  6
VECTORWORKS_DASH_02
 10
608.4993
 20
-451.5
 30
0.0
  0
VERTEX
  5
993
  8
HIDDEN
  6
VECTORWORKS_DASH_02
 10
608.4993
 20
-451.5
 30
0.0
  0
SEQEND
  5
994
  8
HIDDEN
  6
VECTORWORKS_DASH_02
  0
POLYLINE
  5
1EF
  8
HIDDEN
  6
VECTORWORKS_DASH_02
 66
     1
 10
0.0
 20
0.0
 30
0.0
 70
   129
  0
VERTEX
  5
995
  8
HIDDEN
  6
VECTORWORKS_DASH_02
 10
586.9989
 20
-433.5
 30
0.0
 42
-0.414214
  0
VERTEX
  5
996
  8
HIDDEN
  6
VECTORWORKS_DASH_02
 10
594.9989
 20
-425.5
 30
0.0
  0
VERTEX
  5
997
  8
HIDDEN
  6
VECTORWORKS_DASH_02
 10
594.9989
 20
-425.5
 30
0.0
 42
-0.414214
  0
VERTEX
  5
998
  8
HIDDEN
  6
VECTORWORKS_DASH_02
 10
602.9989
 20
-433.5
 30
0.0
  0
VERTEX
  5
999
  8
HIDDEN
  6
VECTORWORKS_DASH_02
 10
602.9989
 20
-599.5
 30
0.0
  0
VERTEX
  5
99A
  8
HIDDEN
  6
VECTORWORKS_DASH_02
 10
602.9989
 20
-599.5
 30
0.0
 42
-0.414214
  0
VERTEX
  5
99B
  8
HIDDEN
  6
VECTORWORKS_DASH_02
 10
594.9989
 20
-607.5
 30
0.0
  0
VERTEX
  5
99C
  8
HIDDEN
  6
VECTORWORKS_DASH_02
 10
594.9989
 20
-607.5
 30
0.0
 42
-0.414214
  0
VERTEX
  5
99D
  8
HIDDEN
  6
VECTORWORKS_DASH_02
 10
586.9989
 20
-599.5
 30
0.0
  0
VERTEX
  5
99E
  8
HIDDEN
  6
VECTORWORKS_DASH_02
 10
586.9989
 20
-433.5
 30
0.0
  0
VERTEX
  5
99F
  8
HIDDEN
  6
VECTORWORKS_DASH_02
 10
586.9989
 20
-433.5
 30
0.0
  0
SEQEND
  5
9A0
  8
HIDDEN
  6
VECTORWORKS_DASH_02
  0
POLYLINE
  5
1F0
  8
OBJECT
  6
CONTINUOUS
 66
     1
 10
0.0
 20
0.0
 30
0.0
 70
   129
  0
VERTEX
  5
9A1
  8
OBJECT
  6
CONTINUOUS
 10
635.0
 20
-582.5
 30
0.0
  0
VERTEX
  5
9A2
  8
OBJECT
  6
CONTINUOUS
 10
645.0
 20
-582.5
 30
0.0
  0
VERTEX
  5
9A3
  8
OBJECT
  6
CONTINUOUS
 10
645.0
 20
-616.5
 30
0.0
  0
VERTEX
  5
9A4
  8
OBJECT
  6
CONTINUOUS
 10
635.0
 20
-616.5
 30
0.0
  0
VERTEX
  5
9A5
  8
OBJECT
  6
CONTINUOUS
 10
635.0
 20
-582.5
 30
0.0
  0
SEQEND
  5
9A6
  8
OBJECT
  6
CONTINUOUS
  0
LINE
  5
1F1
  8
HIDDEN
  6
CONTINUOUS
 10
615.0
 20
-607.5
 30
0.0
 11
594.9989
 21
-607.5
 31
0.0
  0
LINE
  5
1F2
  8
HIDDEN
  6
CONTINUOUS
 10
602.9989
 20
-591.5
 30
0.0
 11
615.0
 21
-591.5
 31
0.0
  0
POLYLINE
  5
1F3
  8
HIDDEN
  6
VECTORWORKS_DASH_02
 66
     1
 10
0.0
 20
0.0
 30
0.0
  0
VERTEX
  5
9A7
  8
HIDDEN
  6
VECTORWORKS_DASH_02
 10
635.0
 20
-582.5
 30
0.0
  0
VERTEX
  5
9A8
  8
HIDDEN
  6
VECTORWORKS_DASH_02
 10
620.0
 20
-582.5
 30
0.0
  0
VERTEX
  5
9A9
  8
HIDDEN
  6
VECTORWORKS_DASH_02
 10
620.0
 20
-616.5
 30
0.0
  0
VERTEX
  5
9AA
  8
HIDDEN
  6
VECTORWORKS_DASH_02
 10
635.0
 20
-616.5
 30
0.0
  0
SEQEND
  5
9AB
  8
HIDDEN
  6
VECTORWORKS_DASH_02
  0
POLYLINE
  5
1F9
  8
HIDDEN
  6
VECTORWORKS_DASH_02
 66
     1
 10
0.0
 20
0.0
 30
0.0
  0
VERTEX
  5
9AC
  8
HIDDEN
  6
VECTORWORKS_DASH_02
 10
620.0
 20
-612.0
 30
0.0
  0
VERTEX
  5
9AD
  8
HIDDEN
  6
VECTORWORKS_DASH_02
 10
615.0
 20
-612.0
 30
0.0
  0
VERTEX
  5
9AE
  8
HIDDEN
  6
VECTORWORKS_DASH_02
 10
615.0
 20
-587.0
 30
0.0
  0
VERTEX
  5
9AF
  8
HIDDEN
  6
VECTORWORKS_DASH_02
 10
620.0
 20
-587.0
 30
0.0
  0
SEQEND
  5
9B0
  8
HIDDEN
  6
VECTORWORKS_DASH_02
  0
LINE
  5
1FF
  8
CENTER
  6
CONTINUOUS
 10
653.0
 20
-599.5
 30
0.0
 11
580.0
 21
-599.5
 31
0.0
  0
POLYLINE
  5
200
  8
HIDDEN
  6
VECTORWORKS_DASH_02
 66
     1
 10
0.0
 20
0.0
 30
0.0
 70
   129
  0
VERTEX
  5
9B1
  8
HIDDEN
  6
VECTORWORKS_DASH_02
 10
573.0
 20
-349.5
 30
0.0
  0
VERTEX
  5
9B2
  8
HIDDEN
  6
VECTORWORKS_DASH_02
 10
617.0
 20
-349.5
 30
0.0
  0
VERTEX
  5
9B3
  8
HIDDEN
  6
VECTORWORKS_DASH_02
 10
617.0
 20
-351.5
 30
0.0
  0
VERTEX
  5
9B4
  8
HIDDEN
  6
VECTORWORKS_DASH_02
 10
573.0
 20
-351.5
 30
0.0
  0
VERTEX
  5
9B5
  8
HIDDEN
  6
VECTORWORKS_DASH_02
 10
573.0
 20
-349.5
 30
0.0
  0
SEQEND
  5
9B6
  8
HIDDEN
  6
VECTORWORKS_DASH_02
  0
POLYLINE
  5
201
  8
HIDDEN
  6
VECTORWORKS_DASH_02
 66
     1
 10
0.0
 20
0.0
 30
0.0
 70
   129
  0
VERTEX
  5
9B7
  8
HIDDEN
  6
VECTORWORKS_DASH_02
 10
574.0
 20
-351.5
 30
0.0
  0
VERTEX
  5
9B8
  8
HIDDEN
  6
VECTORWORKS_DASH_02
 10
616.0
 20
-351.5
 30
0.0
  0
VERTEX
  5
9B9
  8
HIDDEN
  6
VECTORWORKS_DASH_02
 10
616.0
 20
-389.5
 30
0.0
  0
VERTEX
  5
9BA
  8
HIDDEN
  6
VECTORWORKS_DASH_02
 10
574.0
 20
-389.5
 30
0.0
  0
VERTEX
  5
9BB
  8
HIDDEN
  6
VECTORWORKS_DASH_02
 10
574.0
 20
-351.5
 30
0.0
  0
SEQEND
  5
9BC
  8
HIDDEN
  6
VECTORWORKS_DASH_02
  0
POLYLINE
  5
202
  8
OBJECT
  6
CONTINUOUS
 66
     1
 10
0.0
 20
0.0
 30
0.0
 70
   129
  0
VERTEX
  5
9BD
  8
OBJECT
  6
CONTINUOUS
 10
573.0
 20
-389.5
 30
0.0
  0
VERTEX
  5
9BE
  8
OBJECT
  6
CONTINUOUS
 10
617.0
 20
-389.5
 30
0.0
  0
VERTEX
  5
9BF
  8
OBJECT
  6
CONTINUOUS
 10
617.0
 20
-391.5
 30
0.0
  0
VERTEX
  5
9C0
  8
OBJECT
  6
CONTINUOUS
 10
573.0
 20
-391.5
 30
0.0
  0
VERTEX
  5
9C1
  8
OBJECT
  6
CONTINUOUS
 10
573.0
 20
-389.5
 30
0.0
  0
SEQEND
  5
9C2
  8
OBJECT
  6
CONTINUOUS
  0
POLYLINE
  5
203
  8
HIDDEN
  6
VECTORWORKS_DASH_02
 66
     1
 10
0.0
 20
0.0
 30
0.0
 70
   129
  0
VERTEX
  5
9C3
  8
HIDDEN
  6
VECTORWORKS_DASH_02
 10
573.0
 20
-391.5
 30
0.0
  0
VERTEX
  5
9C4
  8
HIDDEN
  6
VECTORWORKS_DASH_02
 10
617.0
 20
-391.5
 30
0.0
  0
VERTEX
  5
9C5
  8
HIDDEN
  6
VECTORWORKS_DASH_02
 10
617.0
 20
-397.5
 30
0.0
  0
VERTEX
  5
9C6
  8
HIDDEN
  6
VECTORWORKS_DASH_02
 10
573.0
 20
-397.5
 30
0.0
  0
VERTEX
  5
9C7
  8
HIDDEN
  6
VECTORWORKS_DASH_02
 10
573.0
 20
-391.5
 30
0.0
  0
SEQEND
  5
9C8
  8
HIDDEN
  6
VECTORWORKS_DASH_02
  0
LINE
  5
204
  8
HIDDEN
  6
CONTINUOUS
 10
617.0
 20
-397.5
 30
0.0
 11
617.0
 21
-418.5
 31
0.0
  0
LINE
  5
205
  8
HIDDEN
  6
CONTINUOUS
 10
573.0
 20
-397.5
 30
0.0
 11
573.0
 21
-418.5
 31
0.0
  0
POLYLINE
  5
206
  8
HIDDEN
  6
VECTORWORKS_DASH_02
 66
     1
 10
0.0
 20
0.0
 30
0.0
 70
   129
  0
VERTEX
  5
9C9
  8
HIDDEN
  6
VECTORWORKS_DASH_02
 10
665.0
 20
-585.0
 30
0.0
  0
VERTEX
  5
9CA
  8
HIDDEN
  6
VECTORWORKS_DASH_02
 10
665.0
 20
-583.5
 30
0.0
  0
VERTEX
  5
9CB
  8
HIDDEN
  6
VECTORWORKS_DASH_02
 10
665.0
 20
-583.5
 30
0.0
 42
-0.414214
  0
VERTEX
  5
9CC
  8
HIDDEN
  6
VECTORWORKS_DASH_02
 10
675.0
 20
-573.5
 30
0.0
  0
VERTEX
  5
9CD
  8
HIDDEN
  6
VECTORWORKS_DASH_02
 10
686.0
 20
-573.5
 30
0.0
  0
VERTEX
  5
9CE
  8
HIDDEN
  6
VECTORWORKS_DASH_02
 10
686.0
 20
-625.5
 30
0.0
  0
VERTEX
  5
9CF
  8
HIDDEN
  6
VECTORWORKS_DASH_02
 10
675.0
 20
-625.5
 30
0.0
  0
VERTEX
  5
9D0
  8
HIDDEN
  6
VECTORWORKS_DASH_02
 10
675.0
 20
-625.5
 30
0.0
 42
-0.414214
  0
VERTEX
  5
9D1
  8
HIDDEN
  6
VECTORWORKS_DASH_02
 10
665.0
 20
-615.5
 30
0.0
  0
VERTEX
  5
9D2
  8
HIDDEN
  6
VECTORWORKS_DASH_02
 10
665.0
 20
-614.0
 30
0.0
  0
VERTEX
  5
9D3
  8
HIDDEN
  6
VECTORWORKS_DASH_02
 10
645.0
 20
-614.0
 30
0.0
  0
VERTEX
  5
9D4
  8
HIDDEN
  6
VECTORWORKS_DASH_02
 10
645.0
 20
-585.0
 30
0.0
  0
VERTEX
  5
9D5
  8
HIDDEN
  6
VECTORWORKS_DASH_02
 10
665.0
 20
-585.0
 30
0.0
  0
SEQEND
  5
9D6
  8
HIDDEN
  6
VECTORWORKS_DASH_02
  0
LINE
  5
207
  8
HIDDEN
  6
VECTORWORKS_DASH_02
 10
1030.0
 20
-544.5
 30
0.0
 11
712.0
 21
-544.5
 31
0.0
  0
POLYLINE
  5
208
  8
HIDDEN
  6
VECTORWORKS_DASH_02
 66
     1
 10
0.0
 20
0.0
 30
0.0
 70
   128
  0
VERTEX
  5
9D7
  8
HIDDEN
  6
VECTORWORKS_DASH_02
 10
686.0
 20
-573.5
 30
0.0
  0
VERTEX
  5
9D8
  8
HIDDEN
  6
VECTORWORKS_DASH_02
 10
695.925013
 20
-571.314548
 30
0.0
  0
VERTEX
  5
9D9
  8
HIDDEN
  6
VECTORWORKS_DASH_02
 10
704.395814
 20
-565.018435
 30
0.0
  0
VERTEX
  5
9DA
  8
HIDDEN
  6
VECTORWORKS_DASH_02
 10
710.040614
 20
-555.570188
 30
0.0
  0
VERTEX
  5
9DB
  8
HIDDEN
  6
VECTORWORKS_DASH_02
 10
712.0
 20
-544.5
 30
0.0
  0
SEQEND
  5
9DC
  8
HIDDEN
  6
VECTORWORKS_DASH_02
  0
LINE
  5
209
  8
HIDDEN
  6
VECTORWORKS_DASH_02
 10
686.0
 20
-625.5
 30
0.0
 11
708.5167
 21
-625.5
 31
0.0
  0
LINE
  5
20A
  8
HIDDEN
  6
VECTORWORKS_DASH_02
 10
1030.0
 20
-544.5
 30
0.0
 11
1030.0
 21
-550.5033
 31
0.0
  0
LINE
  5
20B
  8
HIDDEN
  6
VECTORWORKS_DASH_02
 10
1023.4269
 20
-559.8977
 30
0.0
 11
872.66
 21
-614.8945
 31
0.0
  0
LINE
  5
20C
  8
HIDDEN
  6
VECTORWORKS_DASH_02
 10
869.2331
 20
-615.5
 30
0.0
 11
726.0
 21
-615.5
 31
0.0
  0
POLYLINE
  5
20D
  8
HIDDEN
  6
VECTORWORKS_DASH_02
 66
     1
 10
0.0
 20
0.0
 30
0.0
 70
   128
  0
VERTEX
  5
9DD
  8
HIDDEN
  6
VECTORWORKS_DASH_02
 10
726.0
 20
-615.5
 30
0.0
  0
VERTEX
  5
9DE
  8
HIDDEN
  6
VECTORWORKS_DASH_02
 10
713.629986
 20
-618.424689
 30
0.0
  0
VERTEX
  5
9DF
  8
HIDDEN
  6
VECTORWORKS_DASH_02
 10
708.5167
 20
-625.5
 30
0.0
  0
SEQEND
  5
9E0
  8
HIDDEN
  6
VECTORWORKS_DASH_02
  0
ARC
  5
20E
  8
HIDDEN
  6
VECTORWORKS_DASH_02
 10
1020.0
 20
-550.5033
 30
0.0
 40
9.99992
 50
290.041016
 51
0.0
  0
ARC
  5
20F
  8
HIDDEN
  6
VECTORWORKS_DASH_02
 10
869.2331
 20
-605.5
 30
0.0
 40
10.0
 50
270.0
 51
290.040839
  0
LINE
  5
210
  8
HIDDEN
  6
VECTORWORKS_DASH_02
 10
681.0
 20
-573.5
 30
0.0
 11
681.0
 21
-625.5
 31
0.0
  0
LINE
  5
211
  8
CENTER
  6
CONTINUOUS
 10
526.0
 20
-377.0
 30
0.0
 11
580.0
 21
-377.0
 31
0.0
  0
POLYLINE
  5
212
  8
OBJECT
  6
CONTINUOUS
 66
     1
 10
0.0
 20
0.0
 30
0.0
 70
   129
  0
VERTEX
  5
9E1
  8
OBJECT
  6
CONTINUOUS
 10
541.0
 20
-377.0
 30
0.0
  0
VERTEX
  5
9E2
  8
OBJECT
  6
CONTINUOUS
 10
541.0
 20
-377.0
 30
0.0
 42
-0.414214
  0
VERTEX
  5
9E3
  8
OBJECT
  6
CONTINUOUS
 10
555.0
 20
-363.0
 30
0.0
  0
VERTEX
  5
9E4
  8
OBJECT
  6
CONTINUOUS
 10
555.0
 20
-363.0
 30
0.0
 42
-0.414214
  0
VERTEX
  5
9E5
  8
OBJECT
  6
CONTINUOUS
 10
569.0
 20
-377.0
 30
0.0
  0
VERTEX
  5
9E6
  8
OBJECT
  6
CONTINUOUS
 10
569.0
 20
-404.0
 30
0.0
  0
VERTEX
  5
9E7
  8
OBJECT
  6
CONTINUOUS
 10
541.0
 20
-404.0
 30
0.0
  0
VERTEX
  5
9E8
  8
OBJECT
  6
CONTINUOUS
 10
541.0
 20
-377.0
 30
0.0
  0
SEQEND
  5
9E9
  8
OBJECT
  6
CONTINUOUS
  0
POLYLINE
  5
213
  8
HIDDEN
  6
VECTORWORKS_DASH_02
 66
     1
 10
0.0
 20
0.0
 30
0.0
 70
   129
  0
VERTEX
  5
9EA
  8
HIDDEN
  6
VECTORWORKS_DASH_02
 10
625.0
 20
-109.0
 30
0.0
  0
VERTEX
  5
9EB
  8
HIDDEN
  6
VECTORWORKS_DASH_02
 10
585.0
 20
-109.0
 30
0.0
  0
VERTEX
  5
9EC
  8
HIDDEN
  6
VECTORWORKS_DASH_02
 10
585.0
 20
-109.0
 30
0.0
 42
0.414214
  0
VERTEX
  5
9ED
  8
HIDDEN
  6
VECTORWORKS_DASH_02
 10
561.0
 20
-133.0
 30
0.0
  0
VERTEX
  5
9EE
  8
HIDDEN
  6
VECTORWORKS_DASH_02
 10
561.0
 20
-346.5
 30
0.0
  0
VERTEX
  5
9EF
  8
HIDDEN
  6
VECTORWORKS_DASH_02
 10
549.0
 20
-346.5
 30
0.0
  0
VERTEX
  5
9F0
  8
HIDDEN
  6
VECTORWORKS_DASH_02
 10
549.0
 20
-133.0
 30
0.0
  0
VERTEX
  5
9F1
  8
HIDDEN
  6
VECTORWORKS_DASH_02
 10
549.0
 20
-133.0
 30
0.0
 42
-0.414214
  0
VERTEX
  5
9F2
  8
HIDDEN
  6
VECTORWORKS_DASH_02
 10
585.0
 20
-97.0
 30
0.0
  0
VERTEX
  5
9F3
  8
HIDDEN
  6
VECTORWORKS_DASH_02
 10
625.0
 20
-97.0
 30
0.0
  0
VERTEX
  5
9F4
  8
HIDDEN
  6
VECTORWORKS_DASH_02
 10
625.0
 20
-109.0
 30
0.0
  0
SEQEND
  5
9F5
  8
HIDDEN
  6
VECTORWORKS_DASH_02
  0
POLYLINE
  5
214
  8
CENTER
  6
VECTORWORKS_DASH_12
 66
     1
 10
0.0
 20
0.0
 30
0.0
 70
   128
  0
VERTEX
  5
9F6
  8
CENTER
  6
VECTORWORKS_DASH_12
 10
555.0
 20
-419.5
 30
0.0
  0
VERTEX
  5
9F7
  8
CENTER
  6
VECTORWORKS_DASH_12
 10
555.0
 20
-133.0
 30
0.0
  0
VERTEX
  5
9F8
  8
CENTER
  6
VECTORWORKS_DASH_12
 10
555.0
 20
-133.0
 30
0.0
 42
-0.414214
  0
VERTEX
  5
9F9
  8
CENTER
  6
VECTORWORKS_DASH_12
 10
585.0
 20
-103.0
 30
0.0
  0
VERTEX
  5
9FA
  8
CENTER
  6
VECTORWORKS_DASH_12
 10
714.0
 20
-103.0
 30
0.0
  0
SEQEND
  5
9FB
  8
CENTER
  6
VECTORWORKS_DASH_12
  0
POLYLINE
  5
215
  8
HIDDEN
  6
VECTORWORKS_DASH_02
 66
     1
 10
0.0
 20
0.0
 30
0.0
  0
VERTEX
  5
9FC
  8
HIDDEN
  6
VECTORWORKS_DASH_02
 10
541.5
 20
-373.2919
 30
0.0
  0
VERTEX
  5
9FD
  8
HIDDEN
  6
VECTORWORKS_DASH_02
 10
541.5
 20
-363.5
 30
0.0
  0
VERTEX
  5
9FE
  8
HIDDEN
  6
VECTORWORKS_DASH_02
 10
544.5
 20
-363.5
 30
0.0
  0
VERTEX
  5
9FF
  8
HIDDEN
  6
VECTORWORKS_DASH_02
 10
544.5
 20
-346.5
 30
0.0
  0
VERTEX
  5
A00
  8
HIDDEN
  6
VECTORWORKS_DASH_02
 10
565.5
 20
-346.5
 30
0.0
  0
VERTEX
  5
A01
  8
HIDDEN
  6
VECTORWORKS_DASH_02
 10
565.5
 20
-363.5
 30
0.0
  0
VERTEX
  5
A02
  8
HIDDEN
  6
VECTORWORKS_DASH_02
 10
568.5
 20
-363.5
 30
0.0
  0
VERTEX
  5
A03
  8
HIDDEN
  6
VECTORWORKS_DASH_02
 10
568.5
 20
-373.2919
 30
0.0
  0
SEQEND
  5
A04
  8
HIDDEN
  6
VECTORWORKS_DASH_02
  0
LINE
  5
21F
  8
OBJECT
  6
CONTINUOUS
 10
635.0
 20
-394.0
 30
0.0
 11
569.0
 21
-394.0
 31
0.0
  0
POLYLINE
  5
220
  8
OBJECT
  6
CONTINUOUS
 66
     1
 10
0.0
 20
0.0
 30
0.0
 70
   128
  0
VERTEX
  5
A05
  8
OBJECT
  6
CONTINUOUS
 10
542.4725
 20
-370.75
 30
0.0
  0
VERTEX
  5
A06
  8
OBJECT
  6
CONTINUOUS
 10
542.47247
 20
-370.75003
 30
0.0
 42
0.146626
  0
VERTEX
  5
A07
  8
OBJECT
  6
CONTINUOUS
 10
540.0
 20
-378.99995
 30
0.0
  0
VERTEX
  5
A08
  8
OBJECT
  6
CONTINUOUS
 10
540.0
 20
-379.0
 30
0.0
  0
VERTEX
  5
A09
  8
OBJECT
  6
CONTINUOUS
 10
540.0
 20
-379.0
 30
0.0
  0
VERTEX
  5
A0A
  8
OBJECT
  6
CONTINUOUS
 10
540.0
 20
-379.00004
 30
0.0
 42
0.092058
  0
VERTEX
  5
A0B
  8
OBJECT
  6
CONTINUOUS
 10
540.99995
 20
-384.38509
 30
0.0
  0
VERTEX
  5
A0C
  8
OBJECT
  6
CONTINUOUS
 10
541.0
 20
-384.3852
 30
0.0
  0
SEQEND
  5
A0D
  8
OBJECT
  6
CONTINUOUS
  0
LINE
  5
221
  8
OBJECT
  6
CONTINUOUS
 10
560.1962
 20
-364.0
 30
0.0
 11
635.0
 21
-364.0
 31
0.0
  0
POLYLINE
  5
222
  8
OBJECT
  6
CONTINUOUS
 66
     1
 10
0.0
 20
0.0
 30
0.0
  0
VERTEX
  5
A0E
  8
OBJECT
  6
CONTINUOUS
 10
617.0
 20
-394.0
 30
0.0
  0
VERTEX
  5
A0F
  8
OBJECT
  6
CONTINUOUS
 10
617.0
 20
-391.5
 30
0.0
  0
VERTEX
  5
A10
  8
OBJECT
  6
CONTINUOUS
 10
573.0
 20
-391.5
 30
0.0
  0
VERTEX
  5
A11
  8
OBJECT
  6
CONTINUOUS
 10
573.0
 20
-394.0
 30
0.0
  0
SEQEND
  5
A12
  8
OBJECT
  6
CONTINUOUS
  0
LINE
  5
228
  8
OBJECT
  6
CONTINUOUS
 10
574.0
 20
-364.0
 30
0.0
 11
574.0
 21
-389.5
 31
0.0
  0
LINE
  5
229
  8
OBJECT
  6
CONTINUOUS
 10
616.0
 20
-364.0
 30
0.0
 11
616.0
 21
-389.5
 31
0.0
  0
LINE
  5
22A
  8
OBJECT
  6
CONTINUOUS
 10
630.0
 20
-364.0
 30
0.0
 11
630.0
 21
-394.0
 31
0.0
  0
POLYLINE
  5
22B
  8
HIDDEN
  6
VECTORWORKS_DASH_02
 66
     1
 10
0.0
 20
0.0
 30
0.0
  0
VERTEX
  5
A13
  8
HIDDEN
  6
VECTORWORKS_DASH_02
 10
628.0
 20
-394.0
 30
0.0
  0
VERTEX
  5
A14
  8
HIDDEN
  6
VECTORWORKS_DASH_02
 10
628.0
 20
-453.0
 30
0.0
  0
VERTEX
  5
A15
  8
HIDDEN
  6
VECTORWORKS_DASH_02
 10
538.0
 20
-453.0
 30
0.0
  0
VERTEX
  5
A16
  8
HIDDEN
  6
VECTORWORKS_DASH_02
 10
538.0
 20
-440.0
 30
0.0
  0
VERTEX
  5
A17
  8
HIDDEN
  6
VECTORWORKS_DASH_02
 10
536.0
 20
-440.0
 30
0.0
  0
VERTEX
  5
A18
  8
HIDDEN
  6
VECTORWORKS_DASH_02
 10
536.0
 20
-455.0
 30
0.0
  0
VERTEX
  5
A19
  8
HIDDEN
  6
VECTORWORKS_DASH_02
 10
630.0
 20
-455.0
 30
0.0
  0
VERTEX
  5
A1A
  8
HIDDEN
  6
VECTORWORKS_DASH_02
 10
630.0
 20
-79.0
 30
0.0
  0
VERTEX
  5
A1B
  8
HIDDEN
  6
VECTORWORKS_DASH_02
 10
628.0
 20
-79.0
 30
0.0
  0
VERTEX
  5
A1C
  8
HIDDEN
  6
VECTORWORKS_DASH_02
 10
628.0
 20
-364.0
 30
0.0
  0
SEQEND
  5
A1D
  8
HIDDEN
  6
VECTORWORKS_DASH_02
  0
LINE
  5
237
  8
OBJECT
  6
CONTINUOUS
 10
619.0
 20
-364.0
 30
0.0
 11
619.0
 21
-394.0
 31
0.0
  0
LINE
  5
238
  8
CENTER
  6
CONTINUOUS
 10
623.0
 20
-268.0
 30
0.0
 11
695.0
 21
-268.0
 31
0.0
  0
LINE
  5
239
  8
CENTER
  6
CONTINUOUS
 10
685.0
 20
-348.5
 30
0.0
 11
685.0
 21
-256.5
 31
0.0
  0
LINE
  5
23A
  8
OBJECT
  6
CONTINUOUS
 10
-340.0
 20
-738.0
 30
0.0
 11
260.0
 21
-738.0
 31
0.0
  0
LINE
  5
23B
  8
OBJECT
  6
CONTINUOUS
 10
380.0
 20
-738.0
 30
0.0
 11
1290.0
 21
-738.0
 31
0.0
  0
LINE
  5
23C
  8
CENTER
  6
VECTORWORKS_DASH_13
 10
-94.0
 20
-615.5
 30
0.0
 11
-94.0
 21
-755.5
 31
0.0
  0
LINE
  5
23D
  8
CENTER
  6
VECTORWORKS_DASH_13
 10
94.0
 20
-615.5
 30
0.0
 11
94.0
 21
-755.5
 31
0.0
  0
LINE
  5
23E
  8
CENTER
  6
VECTORWORKS_DASH_13
 10
735.0
 20
-755.5
 30
0.0
 11
735.0
 21
-615.5
 31
0.0
  0
LINE
  5
23F
  8
CENTER
  6
VECTORWORKS_DASH_13
 10
1035.0
 20
-755.5
 30
0.0
 11
1035.0
 21
-615.5
 31
0.0
  0
POLYLINE
  5
240
  8
OBJECT
  6
CONTINUOUS
 66
     1
 10
0.0
 20
0.0
 30
0.0
 70
   129
  0
VERTEX
  5
A1E
  8
OBJECT
  6
CONTINUOUS
 10
555.0
 20
-138.0
 30
0.0
  0
VERTEX
  5
A1F
  8
OBJECT
  6
CONTINUOUS
 10
615.0
 20
-138.0
 30
0.0
  0
VERTEX
  5
A20
  8
OBJECT
  6
CONTINUOUS
 10
615.0
 20
-138.0
 30
0.0
 42
-0.414214
  0
VERTEX
  5
A21
  8
OBJECT
  6
CONTINUOUS
 10
605.0
 20
-148.0
 30
0.0
  0
VERTEX
  5
A22
  8
OBJECT
  6
CONTINUOUS
 10
565.0
 20
-148.0
 30
0.0
  0
VERTEX
  5
A23
  8
OBJECT
  6
CONTINUOUS
 10
565.0
 20
-148.0
 30
0.0
 42
-0.414214
  0
VERTEX
  5
A24
  8
OBJECT
  6
CONTINUOUS
 10
555.0
 20
-138.0
 30
0.0
 42
-0.414214
  0
SEQEND
  5
A25
  8
OBJECT
  6
CONTINUOUS
  0
POLYLINE
  5
241
  8
OBJECT
  6
CONTINUOUS
 66
     1
 10
0.0
 20
0.0
 30
0.0
 70
   129
  0
VERTEX
  5
A26
  8
OBJECT
  6
CONTINUOUS
 10
555.0
 20
-158.0
 30
0.0
  0
VERTEX
  5
A27
  8
OBJECT
  6
CONTINUOUS
 10
615.0
 20
-158.0
 30
0.0
  0
VERTEX
  5
A28
  8
OBJECT
  6
CONTINUOUS
 10
615.0
 20
-158.0
 30
0.0
 42
-0.414214
  0
VERTEX
  5
A29
  8
OBJECT
  6
CONTINUOUS
 10
605.0
 20
-168.0
 30
0.0
  0
VERTEX
  5
A2A
  8
OBJECT
  6
CONTINUOUS
 10
565.0
 20
-168.0
 30
0.0
  0
VERTEX
  5
A2B
  8
OBJECT
  6
CONTINUOUS
 10
565.0
 20
-168.0
 30
0.0
 42
-0.414214
  0
VERTEX
  5
A2C
  8
OBJECT
  6
CONTINUOUS
 10
555.0
 20
-158.0
 30
0.0
 42
-0.414214
  0
SEQEND
  5
A2D
  8
OBJECT
  6
CONTINUOUS
  0
POLYLINE
  5
242
  8
CENTER
  6
VECTORWORKS_DASH_13
 66
     1
 10
0.0
 20
0.0
 30
0.0
 70
   128
  0
VERTEX
  5
A2E
  8
CENTER
  6
VECTORWORKS_DASH_13
 10
1117.0
 20
-221.5
 30
0.0
  0
VERTEX
  5
A2F
  8
CENTER
  6
VECTORWORKS_DASH_13
 10
1117.0
 20
-175.0
 30
0.0
  0
VERTEX
  5
A30
  8
CENTER
  6
VECTORWORKS_DASH_13
 10
1117.0
 20
-175.0
 30
0.0
 42
0.414214
  0
VERTEX
  5
A31
  8
CENTER
  6
VECTORWORKS_DASH_13
 10
1085.0
 20
-143.0
 30
0.0
  0
VERTEX
  5
A32
  8
CENTER
  6
VECTORWORKS_DASH_13
 10
1076.0
 20
-143.0
 30
0.0
  0
SEQEND
  5
A33
  8
CENTER
  6
VECTORWORKS_DASH_13
  0
CIRCLE
  5
243
  8
HIDDEN
  6
VECTORWORKS_DASH_02
 10
735.0
 20
-293.0
 30
0.0
 40
30.0
  0
CIRCLE
  5
244
  8
HIDDEN
  6
VECTORWORKS_DASH_02
 10
735.0
 20
-293.0
 30
0.0
 40
13.5
  0
LINE
  5
245
  8
CENTER
  6
CONTINUOUS
 10
695.0
 20
-293.0
 30
0.0
 11
775.0
 21
-293.0
 31
0.0
  0
LINE
  5
246
  8
CENTER
  6
CONTINUOUS
 10
735.0
 20
-333.0
 30
0.0
 11
735.0
 21
-253.0
 31
0.0
  0
LINE
  5
247
  8
DIMENTION
  6
CONTINUOUS
 10
140.0
 20
-638.0
 30
0.0
 11
140.0
 21
-810.5
 31
0.0
  0
LINE
  5
248
  8
DIMENTION
  6
CONTINUOUS
 10
-140.0
 20
-638.0
 30
0.0
 11
-140.0
 21
-810.5
 31
0.0
  0
LINE
  5
24A
  8
DIMENTION
 10
140.0
 20
-800.5
 30
0.0
 11
124.125
 21
-804.75369
 31
0.0
  0
LINE
  5
24B
  8
DIMENTION
 10
140.0
 20
-800.5
 30
0.0
 11
124.125
 21
-796.24631
 31
0.0
  0
LINE
  5
24C
  8
DIMENTION
 10
-140.0
 20
-800.5
 30
0.0
 11
-124.125
 21
-796.24631
 31
0.0
  0
LINE
  5
24D
  8
DIMENTION
 10
-140.0
 20
-800.5
 30
0.0
 11
-124.125
 21
-804.75369
 31
0.0
  0
LINE
  5
249
  8
DIMENTION
  6
CONTINUOUS
 10
140.0
 20
-800.5
 30
0.0
 11
-140.0
 21
-800.5
 31
0.0
  0
INSERT
  5
24E
  8
DIMENTION
  2
*G5
 10
360.008
 20
-211.3749
 30
0.0
  0
LINE
  5
24F
  8
DIMENTION
  6
CONTINUOUS
 10
-172.0
 20
-407.5
 30
0.0
 11
-225.0
 21
-407.5
 31
0.0
  0
LINE
  5
250
  8
DIMENTION
  6
CONTINUOUS
 10
-186.0
 20
-738.0
 30
0.0
 11
-225.0
 21
-738.0
 31
0.0
  0
LINE
  5
252
  8
DIMENTION
 10
-215.0
 20
-407.5
 30
0.0
 11
-210.74631
 21
-423.375
 31
0.0
  0
LINE
  5
253
  8
DIMENTION
 10
-215.0
 20
-407.5
 30
0.0
 11
-219.25369
 21
-423.375
 31
0.0
  0
LINE
  5
254
  8
DIMENTION
 10
-215.0
 20
-738.0
 30
0.0
 11
-219.25369
 21
-722.125
 31
0.0
  0
LINE
  5
255
  8
DIMENTION
 10
-215.0
 20
-738.0
 30
0.0
 11
-210.74631
 21
-722.125
 31
0.0
  0
LINE
  5
251
  8
DIMENTION
  6
CONTINUOUS
 10
-215.0
 20
-407.5
 30
0.0
 11
-215.0
 21
-738.0
 31
0.0
  0
INSERT
  5
256
  8
DIMENTION
  2
*G6
 10
360.008
 20
-211.3749
 30
0.0
  0
LINE
  5
257
  8
DIMENTION
  6
CONTINUOUS
 10
-171.0
 20
-293.0
 30
0.0
 11
-280.0
 21
-293.0
 31
0.0
  0
LINE
  5
258
  8
DIMENTION
  6
CONTINUOUS
 10
-171.0
 20
-738.0
 30
0.0
 11
-280.0
 21
-738.0
 31
0.0
  0
LINE
  5
25A
  8
DIMENTION
 10
-270.0
 20
-293.0
 30
0.0
 11
-265.74631
 21
-308.875
 31
0.0
  0
LINE
  5
25B
  8
DIMENTION
 10
-270.0
 20
-293.0
 30
0.0
 11
-274.25369
 21
-308.875
 31
0.0
  0
LINE
  5
25C
  8
DIMENTION
 10
-270.0
 20
-738.0
 30
0.0
 11
-274.25369
 21
-722.125
 31
0.0
  0
LINE
  5
25D
  8
DIMENTION
 10
-270.0
 20
-738.0
 30
0.0
 11
-265.74631
 21
-722.125
 31
0.0
  0
LINE
  5
259
  8
DIMENTION
  6
CONTINUOUS
 10
-270.0
 20
-293.0
 30
0.0
 11
-270.0
 21
-738.0
 31
0.0
  0
INSERT
  5
25E
  8
DIMENTION
  2
*G7
 10
360.008
 20
-211.3749
 30
0.0
  0
LINE
  5
25F
  8
DIMENTION
  6
CONTINUOUS
 10
205.0
 20
-377.0
 30
0.0
 11
243.4826
 21
-377.0
 31
0.0
  0
LINE
  5
260
  8
DIMENTION
  6
CONTINUOUS
 10
163.0
 20
-738.0
 30
0.0
 11
243.4826
 21
-738.0
 31
0.0
  0
LINE
  5
262
  8
DIMENTION
 10
233.4826
 20
-377.0
 30
0.0
 11
237.73629
 21
-392.875
 31
0.0
  0
LINE
  5
263
  8
DIMENTION
 10
233.4826
 20
-377.0
 30
0.0
 11
229.22891
 21
-392.875
 31
0.0
  0
LINE
  5
264
  8
DIMENTION
 10
233.4826
 20
-738.0
 30
0.0
 11
229.22891
 21
-722.125
 31
0.0
  0
LINE
  5
265
  8
DIMENTION
 10
233.4826
 20
-738.0
 30
0.0
 11
237.73629
 21
-722.125
 31
0.0
  0
LINE
  5
261
  8
DIMENTION
  6
CONTINUOUS
 10
233.4826
 20
-377.0
 30
0.0
 11
233.4826
 21
-738.0
 31
0.0
  0
INSERT
  5
266
  8
DIMENTION
  2
*G8
 10
360.008
 20
-211.3749
 30
0.0
  0
LINE
  5
267
  8
DIMENTION
  6
CONTINUOUS
 10
-151.0
 20
150.5
 30
0.0
 11
-151.0
 21
71.5
 31
0.0
  0
LINE
  5
268
  8
DIMENTION
  6
CONTINUOUS
 10
151.0
 20
150.5
 30
0.0
 11
151.0
 21
71.5
 31
0.0
  0
LINE
  5
26A
  8
DIMENTION
 10
-151.0
 20
81.5
 30
0.0
 11
-135.125
 21
85.75369
 31
0.0
  0
LINE
  5
26B
  8
DIMENTION
 10
-151.0
 20
81.5
 30
0.0
 11
-135.125
 21
77.24631
 31
0.0
  0
LINE
  5
26C
  8
DIMENTION
 10
151.0
 20
81.5
 30
0.0
 11
135.125
 21
77.24631
 31
0.0
  0
LINE
  5
26D
  8
DIMENTION
 10
151.0
 20
81.5
 30
0.0
 11
135.125
 21
85.75369
 31
0.0
  0
LINE
  5
269
  8
DIMENTION
  6
CONTINUOUS
 10
-151.0
 20
81.5
 30
0.0
 11
151.0
 21
81.5
 31
0.0
  0
INSERT
  5
26E
  8
DIMENTION
  2
*G9
 10
360.008
 20
-211.3749
 30
0.0
  0
LINE
  5
26F
  8
DIMENTION
  6
CONTINUOUS
 10
645.0
 20
-638.0
 30
0.0
 11
645.0
 21
-678.7708
 31
0.0
  0
LINE
  5
270
  8
DIMENTION
  6
CONTINUOUS
 10
594.9989
 20
-604.5
 30
0.0
 11
594.9989
 21
-678.7708
 31
0.0
  0
LINE
  5
272
  8
DIMENTION
 10
645.0
 20
-668.7708
 30
0.0
 11
629.125
 21
-673.02449
 31
0.0
  0
LINE
  5
273
  8
DIMENTION
 10
645.0
 20
-668.7708
 30
0.0
 11
629.125
 21
-664.51711
 31
0.0
  0
LINE
  5
274
  8
DIMENTION
 10
594.9989
 20
-668.7708
 30
0.0
 11
610.8739
 21
-664.51711
 31
0.0
  0
LINE
  5
275
  8
DIMENTION
 10
594.9989
 20
-668.7708
 30
0.0
 11
610.8739
 21
-673.02449
 31
0.0
  0
LINE
  5
271
  8
DIMENTION
  6
CONTINUOUS
 10
645.0
 20
-668.7708
 30
0.0
 11
594.9989
 21
-668.7708
 31
0.0
  0
INSERT
  5
276
  8
DIMENTION
  2
*G10
 10
360.008
 20
-211.3749
 30
0.0
  0
LINE
  5
277
  8
DIMENTION
  6
CONTINUOUS
 10
645.0
 20
-638.0
 30
0.0
 11
645.0
 21
-720.7708
 31
0.0
  0
LINE
  5
278
  8
DIMENTION
  6
CONTINUOUS
 10
555.0
 20
-384.0
 30
0.0
 11
555.0
 21
-720.7708
 31
0.0
  0
LINE
  5
27A
  8
DIMENTION
 10
645.0
 20
-710.7708
 30
0.0
 11
629.125
 21
-715.02449
 31
0.0
  0
LINE
  5
27B
  8
DIMENTION
 10
645.0
 20
-710.7708
 30
0.0
 11
629.125
 21
-706.51711
 31
0.0
  0
LINE
  5
27C
  8
DIMENTION
 10
555.0
 20
-710.7708
 30
0.0
 11
570.875
 21
-706.51711
 31
0.0
  0
LINE
  5
27D
  8
DIMENTION
 10
555.0
 20
-710.7708
 30
0.0
 11
570.875
 21
-715.02449
 31
0.0
  0
LINE
  5
279
  8
DIMENTION
  6
CONTINUOUS
 10
645.0
 20
-710.7708
 30
0.0
 11
555.0
 21
-710.7708
 31
0.0
  0
INSERT
  5
27E
  8
DIMENTION
  2
*G11
 10
360.008
 20
-211.3749
 30
0.0
  0
LINE
  5
27F
  8
DIMENTION
  6
CONTINUOUS
 10
530.0
 20
-633.0
 30
0.0
 11
463.0
 21
-633.0
 31
0.0
  0
LINE
  5
280
  8
DIMENTION
  6
CONTINUOUS
 10
530.0
 20
-738.0
 30
0.0
 11
463.0
 21
-738.0
 31
0.0
  0
LINE
  5
282
  8
DIMENTION
 10
473.0
 20
-633.0
 30
0.0
 11
477.25369
 21
-648.875
 31
0.0
  0
LINE
  5
283
  8
DIMENTION
 10
473.0
 20
-633.0
 30
0.0
 11
468.74631
 21
-648.875
 31
0.0
  0
LINE
  5
284
  8
DIMENTION
 10
473.0
 20
-738.0
 30
0.0
 11
468.74631
 21
-722.125
 31
0.0
  0
LINE
  5
285
  8
DIMENTION
 10
473.0
 20
-738.0
 30
0.0
 11
477.25369
 21
-722.125
 31
0.0
  0
LINE
  5
281
  8
DIMENTION
  6
CONTINUOUS
 10
473.0
 20
-633.0
 30
0.0
 11
473.0
 21
-738.0
 31
0.0
  0
INSERT
  5
286
  8
DIMENTION
  2
*G12
 10
360.008
 20
-211.3749
 30
0.0
  0
LINE
  5
287
  8
DIMENTION
  6
CONTINUOUS
 10
525.0
 20
-633.0
 30
0.0
 11
463.0
 21
-633.0
 31
0.0
  0
LINE
  5
288
  8
DIMENTION
  6
CONTINUOUS
 10
530.0
 20
-78.0
 30
0.0
 11
463.0
 21
-78.0
 31
0.0
  0
LINE
  5
28A
  8
DIMENTION
 10
473.0
 20
-633.0
 30
0.0
 11
468.74631
 21
-617.125
 31
0.0
  0
LINE
  5
28B
  8
DIMENTION
 10
473.0
 20
-633.0
 30
0.0
 11
477.25369
 21
-617.125
 31
0.0
  0
LINE
  5
28C
  8
DIMENTION
 10
473.0
 20
-78.0
 30
0.0
 11
477.25369
 21
-93.875
 31
0.0
  0
LINE
  5
28D
  8
DIMENTION
 10
473.0
 20
-78.0
 30
0.0
 11
468.74631
 21
-93.875
 31
0.0
  0
LINE
  5
289
  8
DIMENTION
  6
CONTINUOUS
 10
473.0
 20
-633.0
 30
0.0
 11
473.0
 21
-78.0
 31
0.0
  0
INSERT
  5
28E
  8
DIMENTION
  2
*G13
 10
360.008
 20
-211.3749
 30
0.0
  0
LINE
  5
28F
  8
DIMENTION
  6
CONTINUOUS
 10
530.0
 20
-78.0
 30
0.0
 11
415.0
 21
-78.0
 31
0.0
  0
LINE
  5
290
  8
DIMENTION
  6
CONTINUOUS
 10
530.0
 20
-738.0
 30
0.0
 11
415.0
 21
-738.0
 31
0.0
  0
LINE
  5
292
  8
DIMENTION
 10
425.0
 20
-78.0
 30
0.0
 11
429.25369
 21
-93.875
 31
0.0
  0
LINE
  5
293
  8
DIMENTION
 10
425.0
 20
-78.0
 30
0.0
 11
420.74631
 21
-93.875
 31
0.0
  0
LINE
  5
294
  8
DIMENTION
 10
425.0
 20
-738.0
 30
0.0
 11
420.74631
 21
-722.125
 31
0.0
  0
LINE
  5
295
  8
DIMENTION
 10
425.0
 20
-738.0
 30
0.0
 11
429.25369
 21
-722.125
 31
0.0
  0
LINE
  5
291
  8
DIMENTION
  6
CONTINUOUS
 10
425.0
 20
-78.0
 30
0.0
 11
425.0
 21
-738.0
 31
0.0
  0
INSERT
  5
296
  8
DIMENTION
  2
*G14
 10
360.008
 20
-211.3749
 30
0.0
  0
LINE
  5
297
  8
DIMENTION
  6
CONTINUOUS
 10
750.0
 20
-2.0
 30
0.0
 11
415.0
 21
-2.0
 31
0.0
  0
LINE
  5
298
  8
DIMENTION
  6
CONTINUOUS
 10
525.0
 20
-78.0
 30
0.0
 11
415.0
 21
-78.0
 31
0.0
  0
LINE
  5
29A
  8
DIMENTION
 10
425.0
 20
-2.0
 30
0.0
 11
429.25369
 21
-17.875
 31
0.0
  0
LINE
  5
29B
  8
DIMENTION
 10
425.0
 20
-2.0
 30
0.0
 11
420.74631
 21
-17.875
 31
0.0
  0
LINE
  5
29C
  8
DIMENTION
 10
425.0
 20
-78.0
 30
0.0
 11
420.74631
 21
-62.125
 31
0.0
  0
LINE
  5
29D
  8
DIMENTION
 10
425.0
 20
-78.0
 30
0.0
 11
429.25369
 21
-62.125
 31
0.0
  0
LINE
  5
299
  8
DIMENTION
  6
CONTINUOUS
 10
425.0
 20
-2.0
 30
0.0
 11
425.0
 21
-78.0
 31
0.0
  0
INSERT
  5
29E
  8
DIMENTION
  2
*G15
 10
360.008
 20
-211.3749
 30
0.0
  0
LINE
  5
29F
  8
DIMENTION
  6
CONTINUOUS
 10
535.0
 20
-73.0
 30
0.0
 11
535.0
 21
65.5
 31
0.0
  0
LINE
  5
2A0
  8
DIMENTION
  6
CONTINUOUS
 10
645.0
 20
-73.0
 30
0.0
 11
645.0
 21
65.5
 31
0.0
  0
LINE
  5
2A2
  8
DIMENTION
 10
535.0
 20
55.5
 30
0.0
 11
550.875
 21
59.75369
 31
0.0
  0
LINE
  5
2A3
  8
DIMENTION
 10
535.0
 20
55.5
 30
0.0
 11
550.875
 21
51.24631
 31
0.0
  0
LINE
  5
2A4
  8
DIMENTION
 10
645.0
 20
55.5
 30
0.0
 11
629.125
 21
51.24631
 31
0.0
  0
LINE
  5
2A5
  8
DIMENTION
 10
645.0
 20
55.5
 30
0.0
 11
629.125
 21
59.75369
 31
0.0
  0
LINE
  5
2A1
  8
DIMENTION
  6
CONTINUOUS
 10
535.0
 20
55.5
 30
0.0
 11
645.0
 21
55.5
 31
0.0
  0
INSERT
  5
2A6
  8
DIMENTION
  2
*G16
 10
360.008
 20
-211.3749
 30
0.0
  0
LINE
  5
2A7
  8
DIMENTION
  6
CONTINUOUS
 10
645.0
 20
-73.0
 30
0.0
 11
645.0
 21
65.5
 31
0.0
  0
LINE
  5
2A8
  8
DIMENTION
  6
CONTINUOUS
 10
1085.0
 20
5.0
 30
0.0
 11
1085.0
 21
65.5
 31
0.0
  0
LINE
  5
2AA
  8
DIMENTION
 10
645.0
 20
55.5
 30
0.0
 11
660.875
 21
59.75369
 31
0.0
  0
LINE
  5
2AB
  8
DIMENTION
 10
645.0
 20
55.5
 30
0.0
 11
660.875
 21
51.24631
 31
0.0
  0
LINE
  5
2AC
  8
DIMENTION
 10
1085.0
 20
55.5
 30
0.0
 11
1069.125
 21
51.24631
 31
0.0
  0
LINE
  5
2AD
  8
DIMENTION
 10
1085.0
 20
55.5
 30
0.0
 11
1069.125
 21
59.75369
 31
0.0
  0
LINE
  5
2A9
  8
DIMENTION
  6
CONTINUOUS
 10
645.0
 20
55.5
 30
0.0
 11
1085.0
 21
55.5
 31
0.0
  0
INSERT
  5
2AE
  8
DIMENTION
  2
*G17
 10
360.008
 20
-211.3749
 30
0.0
  0
LINE
  5
2AF
  8
DIMENTION
  6
CONTINUOUS
 10
1085.0
 20
353.0
 30
0.0
 11
1085.0
 21
413.5
 31
0.0
  0
LINE
  5
2B0
  8
DIMENTION
  6
CONTINUOUS
 10
1135.0
 20
353.0
 30
0.0
 11
1135.0
 21
413.5
 31
0.0
  0
LINE
  5
2B2
  8
DIMENTION
 10
1085.0
 20
403.5
 30
0.0
 11
1100.875
 21
407.75369
 31
0.0
  0
LINE
  5
2B3
  8
DIMENTION
 10
1085.0
 20
403.5
 30
0.0
 11
1100.875
 21
399.24631
 31
0.0
  0
LINE
  5
2B4
  8
DIMENTION
 10
1135.0
 20
403.5
 30
0.0
 11
1119.125
 21
399.24631
 31
0.0
  0
LINE
  5
2B5
  8
DIMENTION
 10
1135.0
 20
403.5
 30
0.0
 11
1119.125
 21
407.75369
 31
0.0
  0
LINE
  5
2B1
  8
DIMENTION
  6
CONTINUOUS
 10
1085.0
 20
403.5
 30
0.0
 11
1135.0
 21
403.5
 31
0.0
  0
INSERT
  5
2B6
  8
DIMENTION
  2
*G18
 10
360.008
 20
-211.3749
 30
0.0
  0
LINE
  5
2B7
  8
DIMENTION
  6
CONTINUOUS
 10
1145.0
 20
-86.5
 30
0.0
 11
1145.0
 21
413.5
 31
0.0
  0
LINE
  5
2B8
  8
DIMENTION
  6
CONTINUOUS
 10
1135.0
 20
353.0
 30
0.0
 11
1135.0
 21
413.5
 31
0.0
  0
LINE
  5
2B9
  8
DIMENTION
  6
CONTINUOUS
 10
1135.0
 20
403.5
 30
0.0
 11
1145.0
 21
403.5
 31
0.0
  0
LINE
  5
2BB
  8
DIMENTION
 10
1145.0
 20
403.5
 30
0.0
 11
1160.875
 21
407.75369
 31
0.0
  0
LINE
  5
2BC
  8
DIMENTION
 10
1145.0
 20
403.5
 30
0.0
 11
1160.875
 21
399.24631
 31
0.0
  0
LINE
  5
2BA
  8
DIMENTION
  6
CONTINUOUS
 10
1145.0
 20
403.5
 30
0.0
 11
1185.78337
 21
403.5
 31
0.0
  0
LINE
  5
2BE
  8
DIMENTION
 10
1135.0
 20
403.5
 30
0.0
 11
1119.125
 21
399.24631
 31
0.0
  0
LINE
  5
2BF
  8
DIMENTION
 10
1135.0
 20
403.5
 30
0.0
 11
1119.125
 21
407.75369
 31
0.0
  0
LINE
  5
2BD
  8
DIMENTION
  6
CONTINUOUS
 10
1135.0
 20
403.5
 30
0.0
 11
1105.0
 21
403.5
 31
0.0
  0
INSERT
  5
2C0
  8
DIMENTION
  2
*G19
 10
360.008
 20
-211.3749
 30
0.0
  0
LINE
  5
2C1
  8
DIMENTION
  6
CONTINUOUS
 10
1137.6906
 20
348.0
 30
0.0
 11
1205.0
 21
348.0
 31
0.0
  0
LINE
  5
2C2
  8
DIMENTION
  6
CONTINUOUS
 10
1090.0
 20
-76.0
 30
0.0
 11
1205.0
 21
-76.0
 31
0.0
  0
LINE
  5
2C4
  8
DIMENTION
 10
1195.0
 20
348.0
 30
0.0
 11
1199.25369
 21
332.125
 31
0.0
  0
LINE
  5
2C5
  8
DIMENTION
 10
1195.0
 20
348.0
 30
0.0
 11
1190.74631
 21
332.125
 31
0.0
  0
LINE
  5
2C6
  8
DIMENTION
 10
1195.0
 20
-76.0
 30
0.0
 11
1190.74631
 21
-60.125
 31
0.0
  0
LINE
  5
2C7
  8
DIMENTION
 10
1195.0
 20
-76.0
 30
0.0
 11
1199.25369
 21
-60.125
 31
0.0
  0
LINE
  5
2C3
  8
DIMENTION
  6
CONTINUOUS
 10
1195.0
 20
348.0
 30
0.0
 11
1195.0
 21
-76.0
 31
0.0
  0
INSERT
  5
2C8
  8
DIMENTION
  2
*G20
 10
360.008
 20
-211.3749
 30
0.0
  0
LINE
  5
2C9
  8
DIMENTION
  6
CONTINUOUS
 10
1140.0
 20
348.0
 30
0.0
 11
1255.0
 21
348.0
 31
0.0
  0
LINE
  5
2CA
  8
DIMENTION
  6
CONTINUOUS
 10
1150.0
 20
-738.0
 30
0.0
 11
1255.0
 21
-738.0
 31
0.0
  0
LINE
  5
2CC
  8
DIMENTION
 10
1245.0
 20
348.0
 30
0.0
 11
1249.25369
 21
332.125
 31
0.0
  0
LINE
  5
2CD
  8
DIMENTION
 10
1245.0
 20
348.0
 30
0.0
 11
1240.74631
 21
332.125
 31
0.0
  0
LINE
  5
2CE
  8
DIMENTION
 10
1245.0
 20
-738.0
 30
0.0
 11
1240.74631
 21
-722.125
 31
0.0
  0
LINE
  5
2CF
  8
DIMENTION
 10
1245.0
 20
-738.0
 30
0.0
 11
1249.25369
 21
-722.125
 31
0.0
  0
LINE
  5
2CB
  8
DIMENTION
  6
CONTINUOUS
 10
1245.0
 20
348.0
 30
0.0
 11
1245.0
 21
-738.0
 31
0.0
  0
INSERT
  5
2D0
  8
DIMENTION
  2
*G21
 10
360.008
 20
-211.3749
 30
0.0
  0
TEXT
  5
2D1
  8
TEXT
 62
   221
 10
-615.644453
 20
380.05209
 30
0.0
 40
16.93336
  1
1
 72
     2
 11
-610.0
 21
380.05209
 31
0.0
  0
TEXT
  5
2D2
  8
TEXT
 62
   221
 10
-621.288907
 20
350.60418
 30
0.0
 40
16.93336
  1
2
 72
     2
 11
-610.0
 21
350.60418
 31
0.0
  0
TEXT
  5
2D3
  8
TEXT
 62
   221
 10
-621.288907
 20
321.15627
 30
0.0
 40
16.93336
  1
3
 72
     2
 11
-610.0
 21
321.15627
 31
0.0
  0
TEXT
  5
2D4
  8
TEXT
 62
   221
 10
-621.288907
 20
291.70836
 30
0.0
 40
16.93336
  1
4
 72
     2
 11
-610.0
 21
291.70836
 31
0.0
  0
TEXT
  5
2D5
  8
TEXT
 62
   221
 10
-621.288907
 20
262.26045
 30
0.0
 40
16.93336
  1
5
 72
     2
 11
-610.0
 21
262.26045
 31
0.0
  0
TEXT
  5
2D6
  8
TEXT
 62
   221
 10
-621.288907
 20
232.81254
 30
0.0
 40
16.93336
  1
6
 72
     2
 11
-610.0
 21
232.81254
 31
0.0
  0
TEXT
  5
2D7
  8
TEXT
 62
   221
 10
-621.288907
 20
203.36463
 30
0.0
 40
16.93336
  1
7
 72
     2
 11
-610.0
 21
203.36463
 31
0.0
  0
TEXT
  5
2D8
  8
TEXT
 62
   221
 10
-621.288907
 20
173.91672
 30
0.0
 40
16.93336
  1
8
 72
     2
 11
-610.0
 21
173.91672
 31
0.0
  0
TEXT
  5
2D9
  8
TEXT
 62
   221
 10
-621.288907
 20
144.46881
 30
0.0
 40
16.93336
  1
9
 72
     2
 11
-610.0
 21
144.46881
 31
0.0
  0
TEXT
  5
2DA
  8
TEXT
 62
   221
 10
-629.755587
 20
115.0209
 30
0.0
 40
16.93336
  1
10
 72
     2
 11
-610.0
 21
115.0209
 31
0.0
  0
TEXT
  5
2DB
  8
TEXT
 62
   221
 10
-626.93336
 20
85.57299
 30
0.0
 40
16.93336
  1
11
 72
     2
 11
-610.0
 21
85.57299
 31
0.0
  0
TEXT
  5
2DC
  8
TEXT
 62
   221
 10
-632.577813
 20
56.12508
 30
0.0
 40
16.93336
  1
12
 72
     2
 11
-610.0
 21
56.12508
 31
0.0
  0
TEXT
  5
2DD
  8
TEXT
 62
   221
 10
-632.577813
 20
26.67717
 30
0.0
 40
16.93336
  1
13
 72
     2
 11
-610.0
 21
26.67717
 31
0.0
  0
TEXT
  5
2DE
  8
TEXT
 62
   221
 10
-632.577813
 20
-2.77074
 30
0.0
 40
16.93336
  1
14
 72
     2
 11
-610.0
 21
-2.77074
 31
0.0
  0
TEXT
  5
2DF
  8
TEXT
 62
   221
 10
-632.577813
 20
-32.21865
 30
0.0
 40
16.93336
  1
15
 72
     2
 11
-610.0
 21
-32.21865
 31
0.0
  0
TEXT
  5
2E0
  8
TEXT
 62
   221
 10
-577.0
 20
380.05209
 30
0.0
 40
16.93336
  1
ü@ü@û╝ü@ü@Å╠
  0
TEXT
  5
2E1
  8
TEXT
 62
   221
 10
-577.0
 20
350.60418
 30
0.0
 40
16.93336
  1
âuü[âXâ^ü[û{æ╠
  0
TEXT
  5
2E2
  8
TEXT
 62
   221
 10
-577.0
 20
321.15627
 30
0.0
 40
16.93336
  1
è╩æõ
  0
TEXT
  5
2E3
  8
TEXT
 62
   221
 10
-577.0
 20
291.70836
 30
0.0
 40
16.93336
  1
âoü[âiü[
  0
TEXT
  5
2E4
  8
TEXT
 62
   221
 10
-577.0
 20
262.26045
 30
0.0
 40
16.93336
  1
â{ü[âïâ^âbâv
  0
TEXT
  5
2E5
  8
TEXT
 62
   221
 10
-577.0
 20
232.81254
 30
0.0
 40
16.93336
  1
âtâìü[âgâXâCâbâ`
  0
TEXT
  5
2E6
  8
TEXT
 62
   221
 10
-577.0
 20
203.36463
 30
0.0
 40
16.93336
  1
âIü[âoü[âtâìü[
  0
TEXT
  5
2E7
  8
TEXT
 62
   221
 10
-577.0
 20
173.91672
 30
0.0
 40
16.93336
  1
âhâîâô
  0
TEXT
  5
2E8
  8
TEXT
 62
   221
 10
-577.0
 20
144.46881
 30
0.0
 40
16.93336
  1
âKâXôdÄÑò┘
  0
TEXT
  5
2E9
  8
TEXT
 62
   221
 10
-577.0
 20
115.0209
 30
0.0
 40
16.93336
  1
ëÀôxâZâôâTü[
  0
TEXT
  5
2EA
  8
TEXT
 62
   221
 10
-577.0
 20
85.57299
 30
0.0
 40
16.93336
  1
æÇìýâpâlâï
  0
TEXT
  5
2EB
  8
TEXT
 62
   221
 10
-577.0
 20
56.12508
 30
0.0
 40
16.93336
  1
âKâXâRâôâgâìü[âëü[
  0
TEXT
  5
2EC
  8
TEXT
 62
   221
 10
-577.0
 20
26.67717
 30
0.0
 40
16.93336
  1
ïïÉàüiïïôÆüjî¹
  0
TEXT
  5
2ED
  8
TEXT
 62
   221
 10
-577.0
 20
-2.77074
 30
0.0
 40
16.93336
  1
âKâXïƒïïî¹
  0
TEXT
  5
2EE
  8
TEXT
 62
   221
 10
-577.0
 20
-32.21865
 30
0.0
 40
16.93336
  1
ÅoôÆî¹
  0
TEXT
  5
2EF
  8
TEXT
 62
   221
 10
-577.0
 20
-61.66656
 30
0.0
 40
16.93336
  1
örïCôø
  0
TEXT
  5
2F0
  8
TEXT
 62
   221
 10
-347.0
 20
380.05209
 30
0.0
 40
16.93336
  1
ü@ö§ü@ü@ìl
  0
TEXT
  5
2F1
  8
TEXT
 62
   221
 10
-347.0
 20
350.60418
 30
0.0
 40
16.93336
  1
SUS 304
  0
TEXT
  5
2F2
  8
TEXT
 62
   221
 10
-347.0
 20
321.15627
 30
0.0
 40
16.93336
  1
SUS 304
  0
TEXT
  5
2F3
  8
TEXT
 62
   221
 10
-347.0
 20
291.70836
 30
0.0
 40
16.93336
  1
6K
  0
TEXT
  5
2F4
  8
TEXT
 62
   221
 10
-347.0
 20
262.26045
 30
0.0
 40
16.93336
  1
îôìHïãü@SH20-2C
  0
TEXT
  5
2F5
  8
TEXT
 62
   221
 10
-347.0
 20
232.81254
 30
0.0
 40
16.93336
  1
ï¾Éåé½ûhÄ~ùp
  0
TEXT
  5
2F6
  8
TEXT
 62
   221
 10
-347.0
 20
203.36463
 30
0.0
 40
16.93336
  1
16ü^14âË
  0
TEXT
  5
2F7
  8
TEXT
 62
   221
 10
-347.0
 20
173.91672
 30
0.0
 40
16.93336
  1
15AâvâëâO
  0
TEXT
  5
2F8
  8
TEXT
 62
   221
 10
-347.0
 20
144.46881
 30
0.0
 40
16.93336
  1
âTü[â~âXâ^
  0
TEXT
  5
2F9
  8
TEXT
 62
   221
 10
-347.0
 20
115.0209
 30
0.0
 40
16.93336
  1
15Aé▀éÀé╦éÂ
  0
TEXT
  5
2FA
  8
TEXT
 62
   221
 10
-347.0
 20
85.57299
 30
0.0
 40
16.93336
  1
15Aé▀éÀé╦éÂ
  0
TEXT
  5
2FB
  8
TEXT
 62
   221
 10
-347.0
 20
56.12508
 30
0.0
 40
16.93336
  1
25A
  0
TEXT
  5
2FC
  8
TEXT
 62
   221
 10
-347.0
 20
26.67717
 30
0.0
 40
16.93336
  1
SUS 430
  0
LINE
  5
2FD
  8
TEXT
  6
CONTINUOUS
 10
-647.0
 20
385.5
 30
0.0
 11
-167.0
 21
385.5
 31
0.0
  0
LINE
  5
2FE
  8
TEXT
  6
CONTINUOUS
 10
-647.0
 20
355.5
 30
0.0
 11
-167.0
 21
355.5
 31
0.0
  0
LINE
  5
2FF
  8
TEXT
  6
CONTINUOUS
 10
-647.0
 20
325.5
 30
0.0
 11
-167.0
 21
325.5
 31
0.0
  0
LINE
  5
300
  8
TEXT
  6
CONTINUOUS
 10
-647.0
 20
295.5
 30
0.0
 11
-167.0
 21
295.5
 31
0.0
  0
LINE
  5
301
  8
TEXT
  6
CONTINUOUS
 10
-647.0
 20
265.5
 30
0.0
 11
-167.0
 21
265.5
 31
0.0
  0
LINE
  5
302
  8
TEXT
  6
CONTINUOUS
 10
-647.0
 20
235.5
 30
0.0
 11
-167.0
 21
235.5
 31
0.0
  0
LINE
  5
303
  8
TEXT
  6
CONTINUOUS
 10
-647.0
 20
205.5
 30
0.0
 11
-167.0
 21
205.5
 31
0.0
  0
LINE
  5
304
  8
TEXT
  6
CONTINUOUS
 10
-647.0
 20
175.5
 30
0.0
 11
-167.0
 21
175.5
 31
0.0
  0
LINE
  5
305
  8
TEXT
  6
CONTINUOUS
 10
-647.0
 20
145.5
 30
0.0
 11
-167.0
 21
145.5
 31
0.0
  0
LINE
  5
306
  8
TEXT
  6
CONTINUOUS
 10
-647.0
 20
115.5
 30
0.0
 11
-167.0
 21
115.5
 31
0.0
  0
LINE
  5
307
  8
TEXT
  6
CONTINUOUS
 10
-647.0
 20
85.5
 30
0.0
 11
-167.0
 21
85.5
 31
0.0
  0
LINE
  5
308
  8
TEXT
  6
CONTINUOUS
 10
-647.0
 20
55.5
 30
0.0
 11
-167.0
 21
55.5
 31
0.0
  0
LINE
  5
309
  8
TEXT
  6
CONTINUOUS
 10
-647.0
 20
25.5
 30
0.0
 11
-167.0
 21
25.5
 31
0.0
  0
LINE
  5
30A
  8
TEXT
  6
CONTINUOUS
 10
-647.0
 20
-4.5
 30
0.0
 11
-167.0
 21
-4.5
 31
0.0
  0
LINE
  5
30B
  8
TEXT
  6
CONTINUOUS
 10
-647.0
 20
-34.5
 30
0.0
 11
-167.0
 21
-34.5
 31
0.0
  0
POLYLINE
  5
30C
  8
TEXT
  6
CONTINUOUS
 66
     1
 10
0.0
 20
0.0
 30
0.0
 70
   129
  0
VERTEX
  5
A34
  8
TEXT
  6
CONTINUOUS
 10
-647.0
 20
415.5
 30
0.0
  0
VERTEX
  5
A35
  8
TEXT
  6
CONTINUOUS
 10
-167.0
 20
415.5
 30
0.0
  0
VERTEX
  5
A36
  8
TEXT
  6
CONTINUOUS
 10
-167.0
 20
-64.5
 30
0.0
  0
VERTEX
  5
A37
  8
TEXT
  6
CONTINUOUS
 10
-647.0
 20
-64.5
 30
0.0
  0
VERTEX
  5
A38
  8
TEXT
  6
CONTINUOUS
 10
-647.0
 20
415.5
 30
0.0
  0
SEQEND
  5
A39
  8
TEXT
  6
CONTINUOUS
  0
LINE
  5
30D
  8
TEXT
  6
CONTINUOUS
 10
-597.0
 20
415.5
 30
0.0
 11
-597.0
 21
-64.5
 31
0.0
  0
LINE
  5
30E
  8
TEXT
  6
CONTINUOUS
 10
-357.0
 20
415.5
 30
0.0
 11
-357.0
 21
-64.5
 31
0.0
  0
LINE
  5
30F
  8
DIMENTION
  6
CONTINUOUS
 10
735.0
 20
-288.0
 30
0.0
 11
735.0
 21
-200.5
 31
0.0
  0
LINE
  5
310
  8
DIMENTION
  6
CONTINUOUS
 10
645.0
 20
-288.0
 30
0.0
 11
645.0
 21
-200.5
 31
0.0
  0
LINE
  5
312
  8
DIMENTION
 10
735.0
 20
-210.5
 30
0.0
 11
719.125
 21
-214.75369
 31
0.0
  0
LINE
  5
313
  8
DIMENTION
 10
735.0
 20
-210.5
 30
0.0
 11
719.125
 21
-206.24631
 31
0.0
  0
LINE
  5
314
  8
DIMENTION
 10
645.0
 20
-210.5
 30
0.0
 11
660.875
 21
-206.24631
 31
0.0
  0
LINE
  5
315
  8
DIMENTION
 10
645.0
 20
-210.5
 30
0.0
 11
660.875
 21
-214.75369
 31
0.0
  0
LINE
  5
311
  8
DIMENTION
  6
CONTINUOUS
 10
735.0
 20
-210.5
 30
0.0
 11
645.0
 21
-210.5
 31
0.0
  0
INSERT
  5
316
  8
DIMENTION
  2
*G22
 10
360.008
 20
-211.3749
 30
0.0
  0
CIRCLE
  5
317
  8
TEXT
  6
CONTINUOUS
 10
360.0
 20
-585.5
 30
0.0
 40
25.0
  0
CIRCLE
  5
318
  8
TEXT
  6
CONTINUOUS
 10
292.0
 20
-695.5
 30
0.0
 40
25.0
  0
LINE
  5
31A
  8
TEXT
 10
86.5
 20
-597.5
 30
0.0
 11
97.6385
 21
-599.86756
 31
0.0
  0
LINE
  5
31B
  8
TEXT
 10
86.5
 20
-597.5
 30
0.0
 11
94.96244
 21
-605.11962
 31
0.0
  0
LINE
  5
319
  8
TEXT
  6
CONTINUOUS
 10
268.3615
 20
-687.3623
 30
0.0
 11
86.5
 21
-597.5
 31
0.0
  0
CIRCLE
  5
31C
  8
TEXT
  6
CONTINUOUS
 10
292.0
 20
-628.0
 30
0.0
 40
25.0
  0
LINE
  5
31E
  8
TEXT
 10
140.0
 20
-584.5
 30
0.0
 11
151.38561
 21
-584.69874
 31
0.0
  0
LINE
  5
31F
  8
TEXT
 10
140.0
 20
-584.5
 30
0.0
 11
149.76086
 21
-590.36491
 31
0.0
  0
LINE
  5
31D
  8
TEXT
  6
CONTINUOUS
 10
267.9649
 20
-621.1215
 30
0.0
 11
140.0
 21
-584.5
 31
0.0
  0
CIRCLE
  5
320
  8
TEXT
  6
CONTINUOUS
 10
292.0
 20
-523.2796
 30
0.0
 40
25.0
  0
LINE
  5
322
  8
TEXT
 10
166.0
 20
-478.0
 30
0.0
 11
177.34401
 21
-478.99247
 31
0.0
  0
LINE
  5
323
  8
TEXT
 10
166.0
 20
-478.0
 30
0.0
 11
175.32796
 21
-484.53151
 31
0.0
  0
LINE
  5
321
  8
TEXT
  6
CONTINUOUS
 10
268.4684
 20
-514.8378
 30
0.0
 11
166.0
 21
-478.0
 31
0.0
  0
CIRCLE
  5
324
  8
TEXT
  6
CONTINUOUS
 10
292.0
 20
-456.5
 30
0.0
 40
25.0
  0
LINE
  5
326
  8
TEXT
 10
186.0
 20
-404.0
 30
0.0
 11
197.1385
 21
-406.36756
 31
0.0
  0
LINE
  5
327
  8
TEXT
 10
186.0
 20
-404.0
 30
0.0
 11
194.46244
 21
-411.61962
 31
0.0
  0
LINE
  5
325
  8
TEXT
  6
CONTINUOUS
 10
269.4953
 20
-445.6126
 30
0.0
 11
186.0
 21
-404.0
 31
0.0
  0
CIRCLE
  5
328
  8
TEXT
  6
CONTINUOUS
 10
-327.0
 20
-665.87
 30
0.0
 40
25.0
  0
LINE
  5
32A
  8
TEXT
 10
-140.0
 20
-574.8116
 30
0.0
 11
-148.72321
 21
-582.13124
 31
0.0
  0
LINE
  5
32B
  8
TEXT
 10
-140.0
 20
-574.8116
 30
0.0
 11
-151.21434
 21
-576.78899
 31
0.0
  0
LINE
  5
329
  8
TEXT
  6
CONTINUOUS
 10
-304.52313
 20
-654.92512
 30
0.0
 11
-140.0
 21
-574.8116
 31
0.0
  0
CIRCLE
  5
32C
  8
TEXT
  6
CONTINUOUS
 10
292.0
 20
-140.6285
 30
0.0
 40
25.0
  0
LINE
  5
32E
  8
TEXT
 10
16.0
 20
-349.5
 30
0.0
 11
23.01075
 21
-340.52665
 31
0.0
  0
LINE
  5
32F
  8
TEXT
 10
16.0
 20
-349.5
 30
0.0
 11
26.55816
 21
-345.23423
 31
0.0
  0
LINE
  5
32D
  8
TEXT
  6
CONTINUOUS
 10
271.0879
 20
-154.3283
 30
0.0
 11
16.0
 21
-349.5
 31
0.0
  0
CIRCLE
  5
330
  8
TEXT
  6
CONTINUOUS
 10
292.0
 20
33.4763
 30
0.0
 40
25.0
  0
LINE
  5
332
  8
TEXT
 10
-15.0
 20
-122.0
 30
0.0
 11
-6.40587
 21
-114.52923
 31
0.0
  0
LINE
  5
333
  8
TEXT
 10
-15.0
 20
-122.0
 30
0.0
 11
-3.82188
 21
-119.82719
 31
0.0
  0
LINE
  5
331
  8
TEXT
  6
CONTINUOUS
 10
269.697
 20
22.1812
 30
0.0
 11
-15.0
 21
-122.0
 31
0.0
  0
CIRCLE
  5
334
  8
TEXT
  6
CONTINUOUS
 10
292.0
 20
-64.5687
 30
0.0
 40
25.0
  0
LINE
  5
336
  8
TEXT
 10
19.6746
 20
-202.4845
 30
0.0
 11
28.26873
 21
-195.01373
 31
0.0
  0
LINE
  5
337
  8
TEXT
 10
19.6746
 20
-202.4845
 30
0.0
 11
30.85272
 21
-200.31169
 31
0.0
  0
LINE
  5
335
  8
TEXT
  6
CONTINUOUS
 10
269.697
 20
-75.8637
 30
0.0
 11
19.6746
 21
-202.4845
 31
0.0
  0
CIRCLE
  5
338
  8
TEXT
  6
CONTINUOUS
 10
-327.73068
 20
-184.37
 30
0.0
 40
25.0
  0
LINE
  5
33A
  8
TEXT
 10
-146.0
 20
-293.0
 30
0.0
 11
-156.94621
 21
-289.86122
 31
0.0
  0
LINE
  5
33B
  8
TEXT
 10
-146.0
 20
-293.0
 30
0.0
 11
-153.91031
 21
-284.80863
 31
0.0
  0
LINE
  5
339
  8
TEXT
  6
CONTINUOUS
 10
-306.2721
 20
-197.19689
 30
0.0
 11
-146.0
 21
-293.0
 31
0.0
  0
CIRCLE
  5
33C
  8
TEXT
  6
CONTINUOUS
 10
-349.0
 20
-480.5
 30
0.0
 40
25.0
  0
LINE
  5
33E
  8
TEXT
 10
-167.0
 20
-434.5
 30
0.0
 11
-176.95959
 21
-440.02069
 31
0.0
  0
LINE
  5
33F
  8
TEXT
 10
-167.0
 20
-434.5
 30
0.0
 11
-178.38561
 21
-434.30126
 31
0.0
  0
LINE
  5
33D
  8
TEXT
  6
CONTINUOUS
 10
-324.7622
 20
-474.374
 30
0.0
 11
-167.0
 21
-434.5
 31
0.0
  0
LINE
  5
341
  8
TEXT
 10
657.0
 20
-316.0
 30
0.0
 11
650.79801
 21
-325.55023
 31
0.0
  0
LINE
  5
342
  8
TEXT
 10
657.0
 20
-316.0
 30
0.0
 11
646.85381
 21
-321.16974
 31
0.0
  0
LINE
  5
340
  8
TEXT
  6
CONTINUOUS
 10
378.5141
 20
-568.7003
 30
0.0
 11
657.0
 21
-316.0
 31
0.0
  0
CIRCLE
  5
343
  8
TEXT
  6
CONTINUOUS
 10
1191.4132
 20
-523.2796
 30
0.0
 40
25.0
  0
LINE
  5
345
  8
TEXT
 10
699.0
 20
-322.5
 30
0.0
 11
710.27652
 21
-324.08481
 31
0.0
  0
LINE
  5
346
  8
TEXT
 10
699.0
 20
-322.5
 30
0.0
 11
707.97335
 21
-329.51075
 31
0.0
  0
LINE
  5
344
  8
TEXT
  6
CONTINUOUS
 10
1168.2636
 20
-513.8404
 30
0.0
 11
699.0
 21
-322.5
 31
0.0
  0
CIRCLE
  5
347
  8
TEXT
  6
CONTINUOUS
 10
1191.4132
 20
-439.9488
 30
0.0
 40
25.0
  0
LINE
  5
349
  8
TEXT
 10
730.5
 20
-145.5
 30
0.0
 11
741.33
 21
-149.01888
 31
0.0
  0
LINE
  5
34A
  8
TEXT
 10
730.5
 20
-145.5
 30
0.0
 11
738.11962
 21
-153.96244
 31
0.0
  0
LINE
  5
348
  8
TEXT
  6
CONTINUOUS
 10
1170.3453
 20
-426.4899
 30
0.0
 11
730.5
 21
-145.5
 31
0.0
  0
CIRCLE
  5
34B
  8
TEXT
  6
CONTINUOUS
 10
1191.4132
 20
-336.5
 30
0.0
 40
25.0
  0
LINE
  5
34D
  8
TEXT
 10
1117.0
 20
-203.0
 30
0.0
 11
1124.91031
 21
-211.19137
 31
0.0
  0
LINE
  5
34E
  8
TEXT
 10
1117.0
 20
-203.0
 30
0.0
 11
1119.75485
 21
-214.04909
 31
0.0
  0
LINE
  5
34C
  8
TEXT
  6
CONTINUOUS
 10
1179.2413
 20
-314.6632
 30
0.0
 11
1117.0
 21
-203.0
 31
0.0
  0
CIRCLE
  5
34F
  8
TEXT
  6
CONTINUOUS
 10
804.0
 20
347.5486
 30
0.0
 40
25.0
  0
LINE
  5
351
  8
TEXT
 10
1085.0
 20
164.5
 30
0.0
 11
1074.17
 21
168.01888
 31
0.0
  0
LINE
  5
352
  8
TEXT
 10
1085.0
 20
164.5
 30
0.0
 11
1077.38038
 21
172.96244
 31
0.0
  0
LINE
  5
350
  8
TEXT
  6
CONTINUOUS
 10
823.8663
 20
332.3719
 30
0.0
 11
1085.0
 21
164.5
 31
0.0
  0
TEXT
  5
353
  8
TEXT
 62
   221
 10
837.0
 20
346.56664
 30
0.0
 40
16.93336
  1
örïCôøüi300ü~50üj
 11
837.0
 21
363.5
 31
0.0
 73
     3
  0
TEXT
  5
354
  8
TEXT
 62
   221
 10
271.51408
 20
-466.72888
 30
0.0
 40
29.22888
  1
12
 72
     1
 11
291.0
 21
-437.5
 31
0.0
 73
     3
  0
TEXT
  5
355
  8
TEXT
 62
   221
 10
281.25704
 20
-705.72888
 30
0.0
 40
29.22888
  1
3
 72
     1
 11
291.0
 21
-676.5
 31
0.0
 73
     3
  0
TEXT
  5
356
  8
TEXT
 62
   221
 10
281.25704
 20
-638.22888
 30
0.0
 40
29.22888
  1
2
 72
     1
 11
291.0
 21
-609.0
 31
0.0
 73
     3
  0
TEXT
  5
357
  8
TEXT
 62
   221
 10
282.75704
 20
-533.50848
 30
0.0
 40
29.22888
  1
7
 72
     1
 11
292.5
 21
-504.2796
 31
0.0
 73
     3
  0
TEXT
  5
358
  8
TEXT
 62
   221
 10
-332.703707
 20
-675.09224
 30
0.0
 40
28.22224
  1
1
 72
     1
 11
-328.0
 21
-646.87
 31
0.0
 73
     3
  0
TEXT
  5
359
  8
TEXT
 62
   221
 10
281.25704
 20
-150.85738
 30
0.0
 40
29.22888
  1
8
 72
     1
 11
291.0
 21
-121.6285
 31
0.0
 73
     3
  0
TEXT
  5
35A
  8
TEXT
 62
   221
 10
273.94982
 20
23.24742
 30
0.0
 40
29.22888
  1
10
 72
     1
 11
291.0
 21
52.4763
 31
0.0
 73
     3
  0
TEXT
  5
35B
  8
TEXT
 62
   221
 10
276.38556
 20
-74.79758
 30
0.0
 40
29.22888
  1
11
 72
     1
 11
291.0
 21
-45.5687
 31
0.0
 73
     3
  0
TEXT
  5
35C
  8
TEXT
 62
   221
 10
-348.7166
 20
-194.59888
 30
0.0
 40
29.22888
  1
14
 72
     1
 11
-329.23068
 21
-165.37
 31
0.0
 73
     3
  0
TEXT
  5
35D
  8
TEXT
 62
   221
 10
-369.98592
 20
-490.72888
 30
0.0
 40
29.22888
  1
13
 72
     1
 11
-350.5
 21
-461.5
 31
0.0
 73
     3
  0
TEXT
  5
35E
  8
TEXT
 62
   221
 10
349.25704
 20
-595.72888
 30
0.0
 40
29.22888
  1
9
 72
     1
 11
359.0
 21
-566.5
 31
0.0
 73
     3
  0
TEXT
  5
35F
  8
TEXT
 62
   221
 10
1180.67024
 20
-533.50848
 30
0.0
 40
29.22888
  1
5
 72
     1
 11
1190.4132
 21
-504.2796
 31
0.0
 73
     3
  0
TEXT
  5
360
  8
TEXT
 62
   221
 10
1180.67024
 20
-450.17768
 30
0.0
 40
29.22888
  1
4
 72
     1
 11
1190.4132
 21
-420.9488
 31
0.0
 73
     3
  0
TEXT
  5
361
  8
TEXT
 62
   221
 10
1180.67024
 20
-346.72888
 30
0.0
 40
29.22888
  1
6
 72
     1
 11
1190.4132
 21
-317.5
 31
0.0
 73
     3
  0
TEXT
  5
362
  8
TEXT
 62
   221
 10
783.51408
 20
337.31972
 30
0.0
 40
29.22888
  1
15
 72
     1
 11
803.0
 21
366.5486
 31
0.0
 73
     3
  0
TEXT
  5
363
  8
TEXT
 62
   221
 10
209.824319
 20
432.428612
 30
0.0
 40
19.48592
  1
ü@ü@ü@ü@ü@ü@ü@Ädü@ü@ü@ùl
  0
TEXT
  5
364
  8
TEXT
 62
   221
 10
211.0
 20
388.16894
 30
0.0
 40
19.48592
  1
ÆÖü@ôÆü@ù╩ü@27 LüiùLî°15 Lüj
  0
TEXT
  5
365
  8
TEXT
 62
   221
 10
211.0
 20
360.50341
 30
0.0
 40
19.48592
  1
âKâXÅ┴ö´ù╩ü@28 kWüi24,000 kcalü^hüj
  0
TEXT
  5
366
  8
TEXT
 62
   221
 10
211.0
 20
332.83788
 30
0.0
 40
19.48592
  1
ü@ü@ü@ü@ü@ü@LPâKâXü@ü@ü@ü@ü@ü@2.0 åLü^h
  0
TEXT
  5
367
  8
TEXT
 62
   221
 10
211.0
 20
305.17235
 30
0.0
 40
19.48592
  1
ü@ü@ü@ü@ü@ü@ôsÄsâKâXüi13Aüjü@  2.1 åGü^h
  0
TEXT
  5
368
  8
TEXT
 62
   221
 10
211.0
 20
277.50682
 30
0.0
 40
19.48592
  1
ü@ü@ü@ü@ü@ü@ÿAæ▒5 LÅoôÆÄ×74 üÄÅÒÅ©
  0
TEXT
  5
369
  8
TEXT
 62
   221
 10
211.0
 20
249.84129
 30
0.0
 40
19.48592
  1
ëÀôxÉºîõü@ü@âTü[â~âXâ^ò¹Ä«
  0
TEXT
  5
36A
  8
TEXT
 62
   221
 10
211.0
 20
222.17576
 30
0.0
 40
19.48592
  1
ü@ü@ü@ü@ü@ü@ü@65 üÄüC75 üÄüC85 üÄé╠3ÆièKÉ¦ÆÞôdÄqÄ«
  0
TEXT
  5
36B
  8
TEXT
 62
   221
 10
211.0
 20
194.51023
 30
0.0
 40
19.48592
  1
ü@ü@ü@ü@ü@ü@â_âCâîâNâgô_ë╬
  0
TEXT
  5
36C
  8
TEXT
 62
   221
 10
211.0
 20
166.8447
 30
0.0
 40
19.48592
  1
ü@ü@ü@ü@ü@ü@âtâîü[âÇâìâbâhê└æSæòÆu
  0
TEXT
  5
36D
  8
TEXT
 62
   221
 10
211.0
 20
139.17917
 30
0.0
 40
19.48592
  1
ôdü@ü@ü@î╣ü@ÆPæè 100 V
  0
TEXT
  5
36E
  8
TEXT
 62
   221
 10
211.0
 20
111.51364
 30
0.0
 40
19.48592
  1
Ä┐ü@ü@ü@ù╩ü@33 åL
  0
LINE
  5
36F
  8
TEXT
  6
CONTINUOUS
 10
351.584976
 20
427.282692
 30
0.0
 11
539.584976
 21
427.282692
 31
0.0
  0
LINE
  5
370
  8
TEXT
  6
CONTINUOUS
 10
351.584976
 20
421.565
 30
0.0
 11
539.584976
 21
421.565
 31
0.0
  0
INSERT
  5
371
  8
OBJECT
  2
*G23
 10
360.008
 20
-211.3749
 30
0.0
  0
INSERT
  5
372
  8
OBJECT
  2
*G24
 10
360.008
 20
-211.3749
 30
0.0
  0
INSERT
  5
373
  8
CENTER
  2
*G25
 10
360.008
 20
-211.3749
 30
0.0
  0
POINT
  5
374
  8
OBJECT
  6
CONTINUOUS
 10
0.0
 20
0.0
 30
0.0
  0
LINE
  5
375
  8
CENTER
  6
VECTORWORKS_DASH_12
 10
180.5
 20
-293.0
 30
0.0
 11
113.0
 21
-293.0
 31
0.0
  0
POINT
  5
376
  8
OBJECT
  6
CONTINUOUS
 10
0.0
 20
0.0
 30
0.0
  0
POLYLINE
  5
377
  8
HIDDEN
  6
VECTORWORKS_DASH_01
 66
     1
 10
0.0
 20
0.0
 30
0.0
 70
   129
  0
VERTEX
  5
A3A
  8
HIDDEN
  6
VECTORWORKS_DASH_01
 10
140.0
 20
-263.0
 30
0.0
  0
VERTEX
  5
A3B
  8
HIDDEN
  6
VECTORWORKS_DASH_01
 10
146.0
 20
-263.0
 30
0.0
  0
VERTEX
  5
A3C
  8
HIDDEN
  6
VECTORWORKS_DASH_01
 10
146.0
 20
-323.0
 30
0.0
  0
VERTEX
  5
A3D
  8
HIDDEN
  6
VECTORWORKS_DASH_01
 10
140.0
 20
-323.0
 30
0.0
  0
VERTEX
  5
A3E
  8
HIDDEN
  6
VECTORWORKS_DASH_01
 10
140.0
 20
-263.0
 30
0.0
  0
SEQEND
  5
A3F
  8
HIDDEN
  6
VECTORWORKS_DASH_01
  0
TEXT
  5
378
  8
DIMENTION
 62
   212
 10
194.5
 20
-251.82834
 30
0.0
 40
16.93334
  1
üªÅoôÆî¹é­é▒é┐éþæñé╠
  0
TEXT
  5
379
  8
DIMENTION
 62
   212
 10
194.5
 20
-278.28668
 30
0.0
 40
16.93334
  1
ü@ÄdùléÓé┼é½é▄éÀüB
  0
TEXT
  5
37A
  8
TEXT
 62
   221
 10
1053.204859
 20
-886.560657
 30
0.0
 40
33.86666
  1
A350-010A
 11
1053.204859
 21
-852.693997
 31
0.0
 73
     3
  0
TEXT
  5
37B
  8
TEXT
 62
   221
 10
620.364363
 20
-883.955305
 30
0.0
 40
25.4
  1
TA-BST-7E
 11
620.364363
 21
-858.555305
 31
0.0
 73
     3
  0
LINE
  5
37D
  8
DIMENTION
 10
146.75
 20
-293.0
 30
0.0
 11
157.74717
 21
-280.78641
 31
0.0
  0
LINE
  5
37E
  8
DIMENTION
 10
146.75
 20
-293.0
 30
0.0
 11
162.38062
 21
-287.9213
 31
0.0
  0
LINE
  5
37C
  8
DIMENTION
  6
CONTINUOUS
 10
146.75
 20
-293.0
 30
0.0
 11
212.0
 21
-249.37
 31
0.0
  0
LINE
  5
37F
  8
DIMENTION
  6
CONTINUOUS
 10
212.0
 20
-249.37
 30
0.0
 11
406.0
 21
-249.37
 31
0.0
  0
ENDSEC
  0
EOF
